PrimaNota.ru - самый крупный в мире бесплатный архив песенных текстов, аккордов, табулатур и нот


House Of Velvet - Sun Up - таба, видео

Регистрация Запомнить меня
Войти через:  Facebook Google Twitter Vk Yandex Mail.ru

House Of Velvet - Sun Up - таба, видео

Печатать
Просмотров: 71
Уроки эстрадного вокала в Санкт-Петербурге
TITLE:  SUN UP
BY:     HOUSE OF VELVET
TABBED BY:  GREG
EMAIL:  greg_pamplin@hotmail.com


This is a wonderful song to play as part of a band.  Although it sounds =
great on guitar as a solo, it sounds better with a Calypso beat on the =
drums, as well as having the bass play the same notes as the guitar.


The main verse & chorus part of the song is as follows:
e|----------------------------------------|
B|----------------------------------------|
G|----------------------------------------|
D|--------------5-8-------7-10-------5-8--|
A|----5-8-----6---------8----------6------|
E|--6-------------------------------------|


The ending part of the song is as follows:
e|----------------------------------------|
B|----------------------------------------|
G|----------------------------------------|
D|--------------5---------5---------------|
A|----5-8-----6---6-8---8---6-------------|
E|--6-----------------8-------------------|


This is a great song because when it can be played anywhere on the =
guitar.  For example, this is played in Bb scale.  You can move all the =
patterns up 1 fret to get a B scale, move the patterns down 1 fret to =
make it an A scale, etc.  It sounds great, just as long as you keep it =
on the bottom three strings!

Good luck & keep on making great music everyone!


     
Добавлено: 03.07.2013
Другие материалы по этой песне:
  • Аккорды и текст

Страница создана 03.07.2013
http://primanota.ru/house-of-velvet/sun-up-chords.htm
Привет, Гость.
Предлагаем пройти революционный курс по гитаре.
Подарок от PrimaNota.Ru, забирай!