PrimaNota.ru - самый крупный в мире бесплатный архив песенных текстов, аккордов, табулатур и нот


Hour Cast - Almost Like Life - текст песни, таба, видео

Регистрация Запомнить меня
Войти через:  Facebook Google Twitter Vk Yandex Mail.ru

Hour Cast - Almost Like Life - текст песни, таба, видео

Печатать
Просмотров: 132
-----------------------------------------------------------------------------
                             Hourcast – Almost Like Life
-----------------------------------------------------------------------------
Tabbed by: Cameron Morrison

Tuning:DADGBe

INTRO/VERSE:
e|-------------------------------------------------------------------------|
B|-------------------------------------------------------------------------|
G|-------------------------------------------------------------------------|
D|-----------2-----2--------------2-----2h3-2------------------------------|
A|---0---0-----0----0-----0---0-----0-0-------0----------------------------|
D|-3---3---3-----3---3--0---0---0----0-------------------------------------|

CHORUS(guitar I)
e|-------------------------------------------------------------------------|
B|--------13---------------13-------------13-------------------------------|
G|--9h10------10-----9h10------9----9h10------10----12-10------------------|
D|-------------------------------------------------------------------------|
A|-------------------------------------------------------------------------|
D|-------------------------------------------------------------------------|

CHORUS(guitar II)
e|-------------------------------------------------------------------------|
B|-------------------------------------------------------------------------|
G|-------------------------------------------------------------------------|
D|--3-----------------1--------------3-------------1-----------------------|
A|--3-----------------1--------------3-------------1-----------------------|
E|--3-----------------1--------------3-------------1-----------------------|

BRIDGE
    You, you'll be my sweetest sanity
e|-------------------------------------------------------------------------|
B|-------------------------------------------------------------------------|
G|-------------------------------------------------------------------------|
D|---5-----------------3---------------------------------------------------|
A|---5-----------------3---------------------------------------------------|
E|---5-----------------3---------------------------------------------------|

Verse: 
Since youre gone I cant see clear, everything just turns to gray. 
Burning embers of our plans, catch the wind and sail away. 
Im living in slow motion now, going through the motions everyday. 

Chorus: 
So Ill stay and live the daydreams that are never gonna come true. 
Its almost like life except for you. 
And Im never gonna move on, living here without you. 
Its almost like life except for you. 

Verse: 
I knew you deserved so much more better than this hell Ive made. 
If I could live it down again, Id trade it all in for your gaze. 
What have I done? How can I live and never get you back? 
What have I done… how… can…

Chorus: 
Ill just stay and watch it go down. Im on a sinking ship without you. 
Its almost like life except for you. 
And Ill go and do the wrong things. But they wont feel the same without you. 
Its almost like life except for you. 

Bridge: 
Youll be my sweetest sanity 
Say youll be my sweetest sanity. 

Chorus: 
And the world is gonna spin on, but Im motionless without you. 
Its almost like life except for you. 
And every single thing has changed, but I still feel the same about you. 
Its almost like life except for you


| h  hammer-on
=============================================================================
Добавлено: 26.02.2012
Другие материалы по этой песне:
  • Аккорды и текст

Страница создана 26.02.2012
http://primanota.ru/hour-cast/almost-like-life-chords.htm
Привет, Гость.
Предлагаем пройти революционный курс по гитаре.
Подарок от PrimaNota.Ru, забирай!