PrimaNota.ru - самый крупный в мире бесплатный архив песенных текстов, аккордов, табулатур и нот


Houndmouth - No One - аккорды и текст, видео

Регистрация Запомнить меня
Войти через:  Facebook Google Twitter Vk Yandex Mail.ru

Houndmouth - No One - аккорды и текст, видео

Печатать
Просмотров: 120
No One
Houndmouth
Half Step Down 


This will get you through the song...It's just this little riff and turn around and then there's the chorus. 
 There's some other hammer on's and nuances that are pretty easy to pick up but are kind of random to tab.

                       

             --->        1  4   2   4 emphasis! 

e----0--------------------------------0----------------0---------0---0---------|
B----0--------------------0---0-------2----------------2---------2---2---0-----|
G----1--------------------1---1---1---2----------------2---------2---2---2-----|
D----2--------------------2---4---2---2----------------2---------2---2---1-----|
A----2------------------------2---2---4-------------0h4--------------4---------|
E----0-------------------------------------------------------------------------|



Going into the chorus                                        A     Bm    E               A    Bm      E
e----0-------------------------------0------0-------0---0--0-0-----2-----0---------------0-----2------0--|
B----0-------------------------------2------2-------2---2--0-2-----2-----0---------------2-----2------0--|
G----1-------------------1---1---1---2------2-------2---2--2-2-----2-----1----1---1---1--2-----2------1--|
D----2-------------------2---4---2---2------2-------2---2--1-2-----4-----2----2---4---2--2-----4------2--|
A----2-------------------2---2---2---4----0h4-------0---4----0-----4-----2----2---2---2--0-----4------2--|
E----0-------------------------------------------------------------2-----0---------------------2------0--|

Добавлено: 06.08.2015
Другие материалы по этой песне:
  • Аккорды и текст

Страница создана 06.08.2015
http://primanota.ru/houndmouth/no-one-chords.htm
Привет, Гость.
Предлагаем пройти революционный курс по гитаре.
Подарок от PrimaNota.Ru, забирай!