PrimaNota.ru - самый крупный в мире бесплатный архив песенных текстов, аккордов, табулатур и нот


Houndmouth - For No One - аккорды и текст, таба, видео

Регистрация Запомнить меня
Войти через:  Facebook Google Twitter Vk Yandex Mail.ru

Houndmouth - For No One - аккорды и текст, таба, видео

Печатать
Просмотров: 138
For No One
Houndmouth
-------------------------------------------------------------------------------
                         For No One - Houndmouth
-------------------------------------------------------------------------------
Tabbed by: MJ

This song is relatively easy. Strumming is a little hard to learn but easy if
you listen to the song. Try to follow the riff for each chord.

Capo III

∧: up-strum   ∨: down-strum

C *
   ∨  ∨ ∧ ∨∧   ∧ ∨∧         ∧ ∨  ∨∨ ∧       ∨∧
e|-0---0-0-0-0---0-0-0---------0-0---0-0-0-------0-0-------------|
B|-1---1-1-1-1---1-1-1---------1-1---1-1-1-------1-1-------------|
G|-0---0-0-0-0---0-0-0---------0-0---0-0-0-------0-0-------------|
D|-2---2-2-2-2---2-2-2---0h2---2-2---2-2-2---2---2-2---0---------|
A|-3---3-3-3-3---3-3-3---------3-3---3-3-3-------3-3------3------|
E|-0---0-0-0-0---0-0-0---------0-0---0-0-0-------0-0-------------|

Am *
   ∨  ∨ ∧ ∨∧   ∧ ∨∧         ∧ ∨  ∨∨ ∧       ∨∧      ∨ ∧
e|-0---0-0-0-0---0-0-0---------0-0---0-0-0-------0-0-------0-0---|
B|-1---1-1-1-1---1-1-1---------1-1---1-1-1-------1-1-------1-1---|
G|-2---2-2-2-2---2-2-2---0h2---2-2---2-2-2---2---2-2---4---4-4---|
D|-2---2-2-2-2---2-2-2---------2-2---2-2-2-------2-2-------2-2---|
A|-0---0-0-0-0---0-0-0---------0-0---0-0-0-------0-0-------0-0---|
E|-0---0-0-0-0---0-0-0---------0-0---0-0-0-------0-0-------0-0---|

Intro

C * Am *   x2

C *                                                                     Am *
Hey that's a trip, why don't you wait a little bit for the acid to kick in?
C *                                                  Am *
Learn to love, that'll come down it'll spread you so thin.
C *                                                                  Am *
Go and take the millions, take the dirty hats and stick them up your ass.
C *                                                                  Am *
I'll take the cheap seats, for my company don't come served inside a glass.

F               Dm
Old man and the sea, 
(Stop)                   C *
Doin' what you were born to.
F              Dm
Shrapnel in my knee,
(Stop)                        C *
I can't walk and I don't care to.

C *                                                     Am *
I met a strange bird. Her legs, they were skinny like a child.
C *                                           Am *
She roamed this land. Strong willed, free and wild.

C *
All the notables in their spine wives
                                       Am *
Three hipsters, two merchants, and Kon-Tiki.
C *
They saw the black down off in the midnight skies.
                                                                Am *
Man, you should've seen 'em they were so down in the dumps that evening.

F               Dm
Old man and the sea, 
(Stop)                   C *
Doin' what you were born to.
F              Dm
Shrapnel in my knee,
(Stop)                        C *
I can't walk and I don't care to.

F                 Dm
I'd do it all for you,
(Stop)             C *
but I do it for no one.
F                   Dm
I'd sing a song for you,
(Stop)
but I sing for no one.

************************************

| /   slide up
| \   slide down
| h   hammer-on
| p   pull-off
| ~   vibrato
| +   harmonic
| x   Mute note
| b   Bend
| pb  Pre-bend
| br  Bend release
| pbr Pre-bend release
| brb Bend release bend

************************************
Добавлено: 26.10.2015
Другие материалы по этой песне:
  • Аккорды и текст

Страница создана 26.10.2015
http://primanota.ru/houndmouth/for-no-one-chords.htm
Привет, Гость.
Предлагаем пройти революционный курс по гитаре.
Подарок от PrimaNota.Ru, забирай!