PrimaNota.ru - самый крупный в мире бесплатный архив песенных текстов, аккордов, табулатур и нот


Hound Dog Taylor - 55th Street Boogie - таба, видео

Регистрация Запомнить меня
Войти через:  Facebook Google Twitter Vk Yandex Mail.ru

Hound Dog Taylor - 55th Street Boogie - таба, видео

Печатать
Просмотров: 24
Уроки эстрадного вокала в Санкт-Петербурге
55TH STREET BOOGIE

As recorded by Hound Dog Taylor And The HouseRockers
(From the 1971 Album HOUND DOG TAYLOR AND THE HOUSEROCKERS)

Music by Hound Dog Taylor

Transcribed by Slowhand


Gtr I (E B E G# B E) - 'Theodore Roosevelt "Hound Dog" Taylor - Electric Guitar w/ Open E Tuning'
Gtr II (E A D G B E) - 'Brewer Phillips - Electric Guitar'


  Q=188(8=s8)
  $
  E
 4/4
  Gtr I (El. Gtr. w/ dist. / Open E Tuning - E B E G# B E)
  E E E a E +E  a Q   a E   +Q   E E E a Q   E
|-----0-2s4-(4)-2s4---2s4-|-(4)--2-0-2-2s4---0-|
|-0-2-0-------------------|------------------0-|
|-------------------------|--------------------|
|-------------------------|--------------------|
|-------------------------|--------------------|
|-------------------------|--------------------|
|
| Gtr II (El. Gtr.)
| Q   E   E  Q      E   E   +Q   Q   Q     Q
|-------------------------|--------------------|
|-------------------------|--------------------|
|-------------------------|--------------------|
|-----------------------2-|-(2)----------------|
|------------2------4-----|------5---4-----2---|
|-0---3---4---------------|--------------------|


  E E E a E +E  a Q   a E   +Q   E E E Q.
|-0---0-2s4-(4)-2s4---2s4-|-(4)--2-0-----------|
|-0-2-0-------------------|--------0-2-0-------|
|-------------------------|--------------------|
|-------------------------|--------------------|
|-------------------------|--------------------|
|-------------------------|--------------------|
|
| Q   E   E  Q      E   E   +Q   Q   Q    Q
|-------------------------|--------------------|
|-------------------------|--------------------|
|-------------------------|--------------------|
|-----------------------2-|-(2)----------------|
|------------2------4-----|------5---4----2----|
|-0---3---4---------------|--------------------|


  A
  E E   E a E +E  a Q   a E   +Q   E E E a Q.
|-0-----0-2s4-(4)-2s4---2s4-|-(4)--2-0-2-2s4------|
|-0-2---0-------------------|---------------------|
|---------------------------|---------------------|
|---------------------------|---------------------|
|---------------------------|---------------------|
|---------------------------|---------------------|
|
| Q   a Q      Q      E   E   +Q   Q   Q      Q
|---------------------------|---------------------|
|---------------------------|---------------------|
|-------------------------2-|-(2)-----------------|
|--------------2------4-----|------5---4------2\--|
|-0---3h4-------------------|---------------------|
|---------------------------|---------------------|


  E
  E E E a E +E  a Q   a E   +Q   E E E Q.
|-0---0-2s4-(4)-2s4---2s4-|-(4)--2-0---0--------|
|---2-0-------------------|----------2-0--------|
|-------------------------|---------------------|
|-------------------------|---------------------|
|-------------------------|---------------------|
|-------------------------|---------------------|
|
| Q   E   E  Q      E   E   +Q   Q   Q    E E
|-------------------------|---------------------|
|-------------------------|---------------------|
|-------------------------|---------------------|
|-----------------------2-|-(2)-----------2p0---|
|------------2------4-----|------5---4----------|
|-0---3h==4---------------|---------------------|


  B                       A
  |---3---|   |-3-|
  Q Q     Q   Q   H        E  E E E a  E  E E E
|-2-2-----2---2---2-----|--0------0-2s=4--2p0---|
|-----------------------|-----2p0-------------2-|
|-----------------------|-----------------------|
|-----------------------|-----------------------|
|-----------------------|-----------------------|
|-----------------------|-----------------------|
|
| Q   a E   E E E   E E   +E  Q   E    Q    Q
|-----------------------|-----------------------|
|-----------------------|-----------------------|
|-----------------------|-----------------------|
|-------------4h6---4---|--------------2--------|
|-2---5s6---6---------0-|-(0)-3---4---(0)---4---|
|-----------------------|-----------------------|


  E
   E Q.    +E  Q   E   E E E E  H
|--0-0-----(0)-------|-0-0--------------||
|--0-0-----(0)-2---0-|-0-0-2-0----------||
|------------------0-|-0-0---0----------||
|--------------------|------------------||
|--------------------|------------------||
|--------------------|------------------||
|
|  E Q   E  Q    E E   Q   E E +Q   E E
|--------------------|------------------||
|--------------------|------------------||
|--------------------|------------------||
|--------------------|-2----------------||
|-----------2----4-4-|-----4-2-(2)--4p2-||
|--0-3---4-----------|------------------||


    E
    E Q   e E e E E   +E  E E E E E Q    E E E e E e E E   +E  E E E E E Q
||--------0---0---0-|-(0)-0-----0------|-------0---0---0-|-(0)-0-----0------|
||o-0-2---0---0---0-|-(0)---2-0-0-2p0--|-0-2-2-0---0-----|-------2-0-0-2p0--|
||------------------|------------------|-----------------|------------------|
||------------------|------------------|-----------------|------------------|
||o-----------------|------------------|-----------------|------------------|
||------------------|------------------|-----------------|------------------|
|
|   Q   E E Q   E E   +Q    Q   Q   Q    Q   E E Q   E E   +Q    Q   Q   Q
||------------------|------------------|-----------------|------------------|
||o-----------------|------------------|-----------------|------------------|
||------------------|------------------|-----------------|------------------|
||----------------2-|-(2)--------------|---------------2-|-(2)--------------|
||o---------2---4---|-------5---4---2--|---------2---4---|-------5---4---2--|
||--0---3-4---------|------------------|-0---3-4---------|------------------|


  A
  E E   E E E E E E   +E  E E E e a Q    E
|---0-----0---0---0-|-(0)-0-----0-2s4------|
|-0-2---2-----0---0-|-(0)-0-2-0------------|
|-------------------|----------------------|
|-------------------|----------------------|
|-------------------|----------------------|
|-------------------|----------------------|
|
| Q   a Q   Q   E E   +Q    Q   Q     Q
|-------------------|----------------------|
|-------------------|----------------------|
|-----------------2-|-(2)------------------|
|-----------2---4---|-------5---4-----2\---|
|-0---3h4-----------|----------------------|
|-------------------|----------------------|


  E
  E  Q    E E E E E   +E  E E E E E E a E
|---(0)---0---0---0-|-(0)-0-----0---------|
|-0--2----0-------0-|-(0)---2-----2---0h2-|
|-------------------|---------0-----0-----|
|-------------------|---------------0-----|
|-------------------|---------------------|
|-------------------|---------------------|
|
| Q     E E Q   E E   +Q    Q   Q   E   E
|-------------------|---------------------|
|-------------------|---------------------|
|-------------------|---------------------|
|-----------------2-|-(2)-----------2p==0-|
|-----------2---4---|-------5---4---------|
|-0-----3h4---------|---------------------|


               To Coda
  B                      A
  |---3---|
  Q Q     Q   E Q   E     E  E E e a  E  E E E
|-2-2-----2---2-2------|--0------0-2s=4--2-0---|
|----------------------|-----2p0-----------0-2-|
|-------------------0--|-----------------------|
|-------------------0--|-----------------------|
|----------------------|-----------------------|
|----------------------|-----------------------|
|
| Q   a E   E E E E E    +E  Q   E    Q    Q
|----------------------|-----------------------|
|----------------------|-----------------------|
|----------------------|-----------------------|
|-------------4h6-4----|--------------2--------|
|-2---5s6---6-------0--|-(0)-3---4---(0)---4---|
|----------------------|-----------------------|


  E
  E Q.    +E  Q   E   Q  a E E +H
|-0-0-----(0)-------|-0------0-(0)-------||
|-0-0-----(0)-2---0-|-0--0h2-0-(0)------o||
|---0-----(0)-----0-|-0------0-(0)-------||
|-------------------|--------------------||
|-------------------|-------------------o||
|-------------------|--------------------||
|
| E Q   E  Q    E E   Q    E E +Q   E E
|-------------------|--------------------||
|-------------------|-------------------o||
|-------------------|--------------------||
|-------------------|-2------------------||
|----------2----4-4-|------4-2-(2)--4p2-o||
|-0-3---4-----------|--------------------||


  E
  E E E a E +E  a Q   a E   +Q   E E E a Q   E
|-----0-2s4-(4)-2s4---2s4-|-(4)--2-0-2-2s4---0-|
|-0-2-0-------------------|------------------0-|
|-------------------------|--------------------|
|-------------------------|--------------------|
|-------------------------|--------------------|
|-------------------------|--------------------|
|
| Q   E   E  Q      E   E   +Q   Q   Q     Q
|-------------------------|--------------------|
|-------------------------|--------------------|
|-------------------------|--------------------|
|-----------------------2-|-(2)----------------|
|------------2------4-----|------5---4-----2---|
|-0---3---4---------------|--------------------|


  E E E a E +E  a Q   a E   +Q   E E E Q.
|-0---0-2s4-(4)-2s4---2s4-|-(4)--2-0---------|
|-0-2-0-------------------|--------0-2-0-----|
|-------------------------|------------------|
|-------------------------|------------------|
|-------------------------|------------------|
|-------------------------|------------------|
|
| Q   E   E  Q      E   E   +Q   Q   Q    Q
|-------------------------|------------------|
|-------------------------|------------------|
|-------------------------|------------------|
|-----------------------2-|-(2)--------------|
|------------2------4-----|------5---4----2--|
|-0---3---4---------------|------------------|


  A
  E E   E a E +E  a Q   a E   +Q   E E E a Q.
|-0-----0-2s4-(4)-2s4---2s4-|-(4)--2-0-2-2s4------|
|-0-2---0-------------------|---------------------|
|---------------------------|---------------------|
|---------------------------|---------------------|
|---------------------------|---------------------|
|---------------------------|---------------------|
|
| Q   a Q      Q      E   E   +Q   Q   Q      Q
|---------------------------|---------------------|
|---------------------------|---------------------|
|-------------------------2-|-(2)-----------------|
|--------------2------4-----|------5---4------2\--|
|-0---3h4-------------------|---------------------|
|---------------------------|---------------------|


  E
  E E E a E +E  a Q   a E   +Q   E E E Q.
|-0---0-2s4-(4)-2s4---2s4-|-(4)--2-0---0--------|
|---2-0-------------------|----------2-0--------|
|-------------------------|---------------------|
|-------------------------|---------------------|
|-------------------------|---------------------|
|-------------------------|---------------------|
|
| Q   E   E  Q      E   E   +Q   Q   Q    E E
|-------------------------|---------------------|
|-------------------------|---------------------|
|-------------------------|---------------------|
|-----------------------2-|-(2)-----------2p0---|
|------------2------4-----|------5---4----------|
|-0---3h==4---------------|---------------------|


  B                       A
  |---3---|   |-3-|
  Q Q     Q   Q   H        E  E E E a  E  E E E
|-2-2-----2---2---2-----|--0------0-2s=4--2p0---|
|-----------------------|-----2p0-------------2-|
|-----------------------|-----------------------|
|-----------------------|-----------------------|
|-----------------------|-----------------------|
|-----------------------|-----------------------|
|
| Q   a E   E E E   E E   +E  Q   E    Q    Q
|-----------------------|-----------------------|
|-----------------------|-----------------------|
|-----------------------|-----------------------|
|-------------4h6---4---|--------------2--------|
|-2---5s6---6---------0-|-(0)-3---4---(0)---4---|
|-----------------------|-----------------------|


  E
  E Q.    +E  Q   E   Q  E E +E  Q    E
|-0-0-----(0)-------|-0----0-(0)-0---12--||
|-0-0-----(0)-2---0-|----2-0-(0)-0---12--||
|-----------------0-|--------------------||
|-------------------|--------------------||
|-------------------|--------------------||
|-------------------|--------------------||
|
| E Q   E  Q    E E   Q  E E +Q    E  E
|-------------------|--------------------||
|-------------------|--------------------||
|-------------------|--------------------||
|-------------------|-2------------------||
|----------2----4-4-|----4-2-(2)---4p=2--||
|-0-3---4-----------|--------------------||


  E
   ~~~~~~~~~~~~~~~~~~~~~~~~~~~~~~~~~~~~~~~~~~~~~~~~~~~~~~~~~~~~~~~~~~~~~~~
   W                Q    Q   Q   Q     Q   Q    Q   Q      Q    Q   Q   Q
|-12-------------|-12---12--12--12--|-12--12---12--12---|-12---12--12--12---|
|----------------|------------------|-------------------|-------------------|
|----------------|------------------|-------------------|-------------------|
|----------------|------------------|-------------------|-------------------|
|----------------|------------------|-------------------|-------------------|
|----------------|------------------|-------------------|-------------------|
|
|  Q  E E Q  E E   +Q    Q   Q   Q     Q   E E  Q   E E   +Q    Q   Q   Q
|----------------|------------------|-------------------|-------------------|
|----------------|------------------|-------------------|-------------------|
|----------------|------------------|-------------------|-------------------|
|--------------2-|-(2)--------------|-----------------2-|-(2)---------------|
|---------2--4---|-------5---4---2--|-----------2---4---|-------5---4---2---|
|--0--3-4--------|------------------|--0---3-4----------|-------------------|


  A
   ~~~~~~~~~~~~~~~~~~~~~~~~~~~~~~~~~~~~~~~
   Q     Q   Q   Q      Q    Q   Q   Q
|-12----12--12--12---|-12---12--12--12---|
|--------------------|-------------------|
|--------------------|-------------------|
|--------------------|-------------------|
|--------------------|-------------------|
|--------------------|-------------------|
|
|  Q  a  Q   Q   E E   +Q    Q   Q   Q
|--------------------|-------------------|
|--------------------|-------------------|
|------------------2-|-(2)---------------|
|------------2---4---|-------5---4---2\--|
|--0--3h=4-----------|-------------------|
|--------------------|-------------------|


  E
 ~~~~~~~~~~~~~~~~~~~~~~~~~~~~~~~~~~~~~~
   Q   Q    Q   Q      Q    Q   Q   Q
|-12--12---12--12---|-12---12--12--12---|
|----------12-------|-------------------|
|-------------------|-------------------|
|-------------------|-------------------|
|-------------------|-------------------|
|-------------------|-------------------|
|
|  Q   E E  Q   E E   +Q    Q   Q   E E
|-------------------|-------------------|
|-------------------|-------------------|
|-------------------|-------------------|
|-----------------2-|-(2)-----------2p0-|
|-----------2---4---|-------5---4-------|
|--0---3h4----------|-------------------|


  B                      A
   ~~~~~~~~~~~~~~~~~~~~~~~~~~~~~~~~~~~~~~~~~~~
   Q     Q    Q    Q      Q     Q    Q    Q
|-12----12---12---12---|-12----12---12---12--|
|----------------------|---------------------|
|----------------------|---------------------|
|----------------------|---------------------|
|----------------------|---------------------|
|----------------------|---------------------|
|
|  Q  a  E E  E E  E E   +E  Q    E  Q    Q
|----------------------|---------------------|
|----------------------|---------------------|
|----------------------|---------------------|
|-------------4h6--4---|-------------2-------|
|--2--5s=6-6---------0-|-(0)-3----4-(0)---4--|
|----------------------|---------------------|


  E
 ~~~~~~~~~~~~~~~~~~~~~~~~~~~~~~~~~~~
   Q    Q    Q   Q      Q   Q    Q    +Q
|-12---12---12--12---|-12--12---12---(12)\---||
|--------------------|-----------------------||
|--------------------|-----------------------||
|--------------------|-----------------------||
|--------------------|-----------------------||
|--------------------|-----------------------||
|
|  E Q    E  Q   E E    Q   E E +Q     E   E
|--------------------|-----------------------||
|--------------------|-----------------------||
|--------------------|-----------------------||
|--------------------|--2--------------------||
|------------2---4-4-|------4-2-(2)----4p==2-||
|--0-3----4----------|-----------------------||


  E
  E E E a E +E  a Q   a E   +Q   E E E a Q   E
|-----0-2s4-(4)-2s4---2s4-|-(4)--2-0-2-2s4---0-|
|-0-2-0-------------------|------------------0-|
|-------------------------|--------------------|
|-------------------------|--------------------|
|-------------------------|--------------------|
|-------------------------|--------------------|
|
| Q   E   E  Q      E   E   +Q   Q   Q     Q
|-------------------------|--------------------|
|-------------------------|--------------------|
|-------------------------|--------------------|
|-----------------------2-|-(2)----------------|
|------------2------4-----|------5---4-----2---|
|-0---3---4---------------|--------------------|


  E E E a E +E  a Q   a E   +Q   E E E Q.
|-0---0-2s4-(4)-2s4---2s4-|-(4)--2-0---------|
|-0-2-0-------------------|--------0-2-0-----|
|-------------------------|------------------|
|-------------------------|------------------|
|-------------------------|------------------|
|-------------------------|------------------|
|
| Q   E   E  Q      E   E   +Q   Q   Q    Q
|-------------------------|------------------|
|-------------------------|------------------|
|-------------------------|------------------|
|-----------------------2-|-(2)--------------|
|------------2------4-----|------5---4----2--|
|-0---3---4---------------|------------------|


  A
  E E   E a E +E  a Q   a E   +Q   E E E a Q.
|-0-----0-2s4-(4)-2s4---2s4-|-(4)--2-0-2-2s4------|
|-0-2---0-2s4-(4)-----------|---------------------|
|---------------------------|---------------------|
|---------------------------|---------------------|
|---------------------------|---------------------|
|---------------------------|---------------------|
|
| Q   a Q      Q      E   E   +Q   Q   Q      Q
|---------------------------|---------------------|
|---------------------------|---------------------|
|-------------------------2-|-(2)-----------------|
|--------------2------4-----|------5---4------2\--|
|-0---3h4-------------------|---------------------|
|---------------------------|---------------------|


  E
  E E E a E +E  a Q   a E   +Q   E E E Q.
|-0---0-2s4-(4)-2s4---2s4-|-(4)--2-0---0--------|
|---2-0-------------------|----------2-0--------|
|-------------------------|---------------------|
|-------------------------|---------------------|
|-------------------------|---------------------|
|-------------------------|---------------------|
|
| Q   E   E  Q      E   E   +Q   Q   Q    E E
|-------------------------|---------------------|
|-------------------------|---------------------|
|-------------------------|---------------------|
|-----------------------2-|-(2)-----------2p0---|
|------------2------4-----|------5---4----------|
|-0---3h==4---------------|---------------------|


  B                       A
  |---3---|   |-3-|
  Q Q     Q   Q   H        E  E E E a  E  E E E
|-2-2-----2---2---2-----|--0------0-2s=4--2p0---|
|-----------------------|-----2p0-------------2-|
|-----------------------|-----------------------|
|-----------------------|-----------------------|
|-----------------------|-----------------------|
|-----------------------|-----------------------|
|
| Q   a E   E E E   E E   +E  Q   E    Q    Q
|-----------------------|-----------------------|
|-----------------------|-----------------------|
|-----------------------|-----------------------|
|-------------4h6---4---|--------------2--------|
|-2---5s6---6---------0-|-(0)-3---4---(0)---4---|
|-----------------------|-----------------------|


  E
  E Q.    +E  Q   E   E E E E  H
|-0-0-----(0)-------|-0-0---------------||
|-0-0-----(0)-2---0-|-0-0-2-0-----------||
|-----------------0-|-0-0---0-----------||
|-------------------|-------------------||
|-------------------|-------------------||
|-------------------|-------------------||
|
| E Q   E  Q    E E   Q   E E +Q   E E
|-------------------|-------------------||
|-------------------|-------------------||
|-------------------|-------------------||
|-------------------|-2-----------------||
|----------2----4-4-|-----4-2-(2)--4p2--||
|-0-3---4-----------|-------------------||


    E E Q  H      E E Q  H      E E Q  E E Q
||--------------|-------------|---------------|
||o-------------|-------------|---------------|
||--------------|-------------|---------------|
||--------------|-------------|---------------|
||o-0-0---------|-0-0---------|-0-0----0-0----|
||--------------|-------------|---------------|
|
|   E E Q  H      E E Q  H      E E Q  E E Q
||--------------|-------------|---------------|
||o-------------|-------------|---------------|
||--------------|-------------|---------------|
||--------------|-------------|---------------|
||o-2-2---------|-2-2---------|-2-2----2-2----|
||--------------|-------------|---------------|


                    1.,2.,3.,4.,58.6.,7.
                             D.S. al Coda
  Q.    E +E  E Q    W         8x H    H
|------------------|-----------||-----------||
|------------------|----------o||-----------||
|------------------|-----------||-----------||
|------------------|-----------||-----------||
|-0-----5-(5)------|----------o||-----------||
|------------------|-----------||-----------||
|
| Q   E E +E  E Q    W         8x W
|------------------|-----------||-----------||
|------------------|----------o||-----------||
|------------------|-----------||-----------||
|-------2-(2)------|-----------||-----------||
|-2---0------------|----------o||-----------||
|------------------|-----------||-----------||


  &
  A                    E
   E  E E E a Q   Q    e e Q   e E e E   e E e e Q  Q
|--0------0-2s4------|---0---------0---|-0-----0----------|
|--0--2p0-0----------|---0-----3---2---|-0---3-0----------|
|--------------------|-----------------|-----1------0-----|
|--------------------|-----------------|------------0-----|
|--------------------|-----------------|------------0-----|
|--------------------|-----------------|------------0-----|
|
|  E  Q   E   E E Q    E Q   E Q   Q     E E E E Q  E +E
|--------------------|-----------------|------------0-----|
|--------------------|-----------------|------------0-----|
|--------------------|-----------------|------------1-----|
|-------------2h4-2--|-----------------|-2p0-0-2----2-----|
|-(0)-3---4----------|---------0---1---|-2p0-0------2-----|
|--------------------|-0-4---4---------|------------0-(0)-|


  +Q.   E H       E  E H    Q    W
|--------------|---------------|------*|
|--------------|--3----2-------|------*|
|-(0)----------|---------------|------*|
|-(0)----------|---------------|------*|
|-(0)----------|---------------|------*|
|-(0)----------|---------------|------*|
|
| +W             +H.        Q    W
|--------------|---------------|------*|
|--------------|---------------|------*|
|--------------|---------------|------*|
|--------------|---------------|------*|
|--------------|---------------|------*|
|-(0)----------|-(0)-----------|------*|


Duration Legend
---------------
W - whole; H - half; Q - quarter; E - 8th; S - 16th; T - 32nd; X - 64th; a - acciaccatura
+ - note tied to previous; . - note dotted; .. - note double dotted
Uncapitalized letters represent notes that are staccato (1/2 duration)
Irregular groupings are notated above the duration line
Duration letters will always appear directly above the note/fret number it represents the
duration for.  Duration letters with no fret number below them represent rests.  Multi-
bar rests are notated in the form Wxn, where n is the number of bars to rest for.  Low
melody durations appear below the staff

Tablature Legend
----------------
 h   - hammer-on
 p   - pull-off
 b   - bend
 pb  - pre-bend
 r   - bend release (if no number after the r, then release immediately)
 /\  - slide into or out of (from/to "nowhere")
 s   - legato slide
 S   - shift slide
  - natural harmonic
[n]  - artificial harmonic
n(n) - tapped harmonic
 ~   - vibrato
 tr  - trill
 T   - tap
 TP  - trem. picking
 PM  - palm muting
\n/  - tremolo bar dip; n = amount to dip
 \n  - tremolo bar down
 n/  - tremolo bar up
/n\  - tremolo bar inverted dip
 =   - hold bend; also acts as connecting device for hammers/pulls
 <>  - volume swell (louder/softer)
 x   - on rhythm slash represents muted slash
 o   - on rhythm slash represents single note slash

Misc Legend
-----------
 |  - bar
||  - double bar
||o - repeat start
o|| - repeat end
*|  - double bar (ending)
 :  - bar (freetime)
 $  - Segno
 &  - Coda
Tempo markers -  = BPM(8/16=s8/s16), where s8 = swing 8ths, s16 = swing 16ths
Добавлено: 22.12.2015
Другие материалы по этой песне:

Страница создана 05.11.2014
http://primanota.ru/hound-dog-taylor/55th-street-boogie-chords.htm
Привет, Гость.
Предлагаем пройти революционный курс по гитаре.
Подарок от PrimaNota.Ru, забирай!