PrimaNota.ru - самый крупный в мире бесплатный архив песенных текстов, аккордов, табулатур и нот


Hoth - A Blighted Hope - таба, видео

Регистрация Запомнить меня
Войти через:  Facebook Google Twitter Vk Yandex Mail.ru

Hoth - A Blighted Hope - таба, видео

Печатать
Просмотров: 133
Уроки эстрадного вокала в Санкт-Петербурге
-------------------------------------------------------------------------------
                          A Blighted Hope - Hoth
-------------------------------------------------------------------------------
Tabbed by: me
E-mail: charlie.planet@gmail.com
Album: Oathbreaker (2014)

Tuning: Standard

Acoustic at 0:37
First part x3, then second part
e|---------------------------------------------|
B|---------------------------------------------|
G|------------------------2--------------------|
D|----3-2-3-----------3-2---2-3-2--------------|
A|--2-------2---2---2--------------------------|
E|0-----------0---0----------------------------|

Lead riff at 2:48, same acoustic
e|---------------------------------------------------------------------------|
B|---------------------------------------------------------------------------|
G|1-22-1-2--1-22-1-2-2-4-6-7-7-7777-6-4-1---2--------------------------------|
D|---------------------------------------------------------------------------|
A|---------------------------------------------------------------------------|
E|---------------------------------------------------------------------------|

Second voice, also during the verses, bend each note a little
e|---------------------------------------------------------------------------|
B|9-1010-9-10--9-1010-9-10-10-12-14-15-15-15151515-14-12-9---10--------------|
G|---------------------------------------------------------------------------|
D|---------------------------------------------------------------------------|
A|---------------------------------------------------------------------------|
E|---------------------------------------------------------------------------|

Rhythym during the chorus
e|---------------------------------------------------------------------------|
B|---------------------------------------------------------------------------|
G|---------------------------------------------------------------------------|
D|---------------------------------------------------------------------------|
A|---------------------------------------------------------------------------|
E|11111111/77777\55\44/555555555555\222222222222-----------------------------|

e|---------------------------------------------------------------------------|
B|---------------------------------------------------------------------------|
G|---------------------------------------------------------------------------|
D|---------------------------------------------------------------------------|
A|---------------------------------------------------------------------------|
E|0000000077777\55\44444444444444000000000000000-----------------------------|

Extension of Riff A
e|---0-2p0----0-2p0----------------------------------------------------------------------------|
B|03--------3-----------2-3p2-----2-3p2-------9-10p9-------9-10p0------9-10p9-------9-10p9-----|
G|--------2--------2--4-------2-4-------2--11-----------11----------11-----------11------------|
D|---------------------------------------------------11----------11-----------11-----------11--|
A|---------------------------------------------------------------------------------------------|
E|---------------------------------------------------------------------------------------------|

e|---0-2p0----0-2p0-----------------------------------------------------------|
B|-3--------3-----------2-3p2-----2-3p2------7-9p7-----7-9p7------------------|
G|--------2--------2--4-------2-4-------2--9---------9------------------------|
D|-------------------------------------------------9---------9----------------|
A|----------------------------------------------------------------------------|
E|----------------------------------------------------------------------------|

Just some odds and ends for the song "A Blighted Hope" by Hoth off of Oathbreaker. The riffs were pretty 
challenging to figure out and I'm glad I got them in the end, hope you enjoy playing them. If you've
got anything to add to this song mail me or put it in the comments and I'll add it.


************************************

| /   slide up
| \   slide down
| h   hammer-on
| p   pull-off
| ~   vibrato
| +   harmonic
| x   Mute note
| b   Bend
| pb  Pre-bend
| br  Bend release
| pbr Pre-bend release
| brb Bend release bend

************************************
Добавлено: 29.12.2015
Другие материалы по этой песне:
  • Аккорды и текст

Страница создана 29.12.2015
http://primanota.ru/hoth/blighted-hope-chords.htm
Привет, Гость.
Предлагаем пройти революционный курс по гитаре.
Подарок от PrimaNota.Ru, забирай!