PrimaNota.ru - самый крупный в мире бесплатный архив песенных текстов, аккордов, табулатур и нот


The Hotelier - Life In Drag - таба, видео

Регистрация Запомнить меня
Войти через:  Facebook Google Twitter Vk Yandex Mail.ru

The Hotelier - Life In Drag - таба, видео

Печатать
Просмотров: 83
-------------------------------------------------------------------------------
                             LIFE IN DRAG - The Hotelier
-------------------------------------------------------------------------------
I tried my best to figure out what they were playing in this song, sorry I could only get the one guitar part
for most of the song, but this should be enough to play along. 


Tuning: Half-step down



Verse: x2
eb|----------------------------|--|-----------------------------|--|
Bb|-1010107--7-7--7-7-7--7-7-7-|--|-10101012-1212-121212-121212-|--|
Gb|-x-x-x-x--x-x--x-x-x--x-x-x-|x4|-0-0-0-0--0-0--0-0-0--0-0-0--|x4|
Db|-9-9-9-5--5-5--5-5-5--5-5-5-|--|-x-x-x-x--x-x--x-x-x--x-x-x--|--|
Ab|-1010107--7-7--7-7-7--7-7-7-|--|-9-9-9-10-1010-101010-101010-|--|
Eb|----------------------------|--|-----------------------------|--|

Interlude:
eb|------------------------------|--|--------------------|
Bb|------------------------------|--|--------------------|
Gb|-----0-------0-------0--------|x8|-0------------------|
Db|---0---0---0---0---0---0------|--|-0------------------|
Ab|---------7-------9-------9h10-|--|-9------------------|
Eb|-8----------------------------|--|-10-----------------|

Verse:
eb|----------------------------|--|
Bb|-1010107--7-7--7-7-7--7-7-7-|--|
Gb|-x-x-x-x--x-x--x-x-x--x-x-x-|x4|
Db|-9-9-9-5--5-5--5-5-5--5-5-5-|--|
Ab|-1010107--7-7--7-7-7--7-7-7-|--|
Eb|----------------------------|--|

Bridge:
eb|-------------------------------------------------|
Bb|-12--12-7--8-----------8-----------7-------------|
Gb|-0---0--0--0-----------0-----------0-------------|
Db|-x---x--x--x-----------x-----------x-------------|
Ab|-10--10-5--7-----------7-----------5-------------|
Eb|-------------------------------------------------|
  |                                                 | x4
eb|-------------------------------------------------|
Bb|-------------------------------------------------|
Gb|-------------------------------------------------|
Db|-9---9--4--5-----------2-----------4-------------|
Ab|-9---9--4--5-----------2-----------5-------------|
Eb|-7---7--2--3-----------0-----------2-------------|


Outro:  same as bridge, just start strumming away, then end on this:

eb|---------------------------------|
Bb|-12--12-7--8---------------------|
Gb|-0---0--0--0---------------------|
Db|-x---x--x--x---------------------|
Ab|-10--10-5--7---------------------|
Eb|---------------------------------|



************************************

| /   slide up
| \   slide down
| h   hammer-on
| p   pull-off
| ~   vibrato
| +   harmonic
| x   Mute note
| b   Bend
| pb  Pre-bend
| br  Bend release
| pbr Pre-bend release
| brb Bend release bend

************************************
Добавлено: 09.11.2015
Вам также может быть интересно:
Другие материалы по этой песне:
  • Аккорды и текст

Страница создана 09.11.2015
http://primanota.ru/hotelier/life-in-drag-chords.htm
Привет, Гость.
Предлагаем пройти революционный курс по гитаре.
Подарок от PrimaNota.Ru, забирай!