PrimaNota.ru - самый крупный в мире бесплатный архив песенных текстов, аккордов, табулатур и нот


The Hotelier - Discomfort Revisited - таба, видео

Регистрация Запомнить меня
Войти через:  Facebook Google Twitter Vk Yandex Mail.ru

The Hotelier - Discomfort Revisited - таба, видео

Печатать
Просмотров: 107
-------------------------------------------------------------------------------
                             Discomfort Revisited - The Hotelier
-------------------------------------------------------------------------------
Tabbed by: Kinzy
E-mail: Comment with questions

Tuning: Standard
Capo on first fret

The basic progression is D# - D - C - A# if you want to just play the chords:

e|-----x--x--x--------------------------------------------------|
B|--3--3--3--3--------------------------------------------------|
G|--2--2--0--0--------------------------------------------------|
D|--0--x--x--x--------------------------------------------------|
A|-----4--2--0--------------------------------------------------|
E|--------------------------------------------------------------|

Verse:

e|-----0-----------0-----------0---------------------------------------------|
B|--3----3-----3-----3-----3-----3-----3-------------------------------------|
G|----2----------2-----------0-----------------------------------------------|
D|-0-------------------------------------------------------------------------|
A|-----------4-----------2-----------0---------------------------------------|
E|---------------------------------------------------------------------------|

Prechorus/end of verse is just a strummed G (repeat as need):

e|--x------------------------------------------------------------------------|
B|--3------------------------------------------------------------------------|
G|--0------------------------------------------------------------------------|
D|--0------------------------------------------------------------------------|
A|--x------------------------------------------------------------------------|
E|--3------------------------------------------------------------------------|

Chorus:

Main part repeated:

e|----------------xxxxx--xxxxx----x--x---------------------------------------|
B|--33333--33333--33333--33333----3--3---------------------------------------|
G|--22222--22222--22222--22222----0--0---------------------------------------|
D|--00000--00000--xxxxx--xxxxx----x--0---------------------------------------|
A|----------------44444--44444----2--x---------------------------------------|
E|-----------------------------------3---------------------------------------|

End first chorus on a D#:

e|----------xxxxx---2-----------------------------------------|
B|--33333---33333---3-----------------------------------------|
G|--22222---22222---2-----------------------------------------|
D|--00000---xxxxx---0-----------------------------------------|
A|----------44444---------------------------------------------|
E|------------------------------------------------------------|

End other choruses on a G#:

e|----------xxxxx---x--------------------------------------------|
B|--33333---33333---3--------------------------------------------|
G|--22222---22222---0--------------------------------------------|
D|--00000---xxxxx---0--------------------------------------------|
A|----------44444---x--------------------------------------------|
E|------------------3--------------------------------------------|


Bridge:

e|--------2----------2----------2----------2----------------------------------|
B|----3-----3----3-----3----3-----3----3-----3--------------------------------|
G|--2---2------2---2------0---0------0---0------------------------------------|
D|----------------------------------------------------------------------------|
A|----------------------------------------------------------------------------|
E|----------------------------------------------------------------------------|


************************************

| /   slide up
| \   slide down
| h   hammer-on
| p   pull-off
| ~   vibrato
| +   harmonic
| x   Mute note
| b   Bend
| pb  Pre-bend
| br  Bend release
| pbr Pre-bend release
| brb Bend release bend

************************************
Добавлено: 08.05.2015
Другие материалы по этой песне:
  • Аккорды и текст

Страница создана 08.05.2015
http://primanota.ru/hotelier/discomfort-revisited-chords.htm
Привет, Гость.
Предлагаем пройти революционный курс по гитаре.
Подарок от PrimaNota.Ru, забирай!