PrimaNota.ru - самый крупный в мире бесплатный архив песенных текстов, аккордов, табулатур и нот


The Hotelier - An Introduction To The Album - таба, видео

Регистрация Запомнить меня
Войти через:  Facebook Google Twitter Vk Yandex Mail.ru

The Hotelier - An Introduction To The Album - таба, видео

Печатать
Просмотров: 71
-------------------------------------------------------------------------------
              AN INTRODUCTION TO THE ALBUM - The Hotelier
-------------------------------------------------------------------------------

Tuning: Half step down

Intro/Verse:
eb|------------------------------------------------------------------------------|
Bb|-------------------------9---5---7---4---2-----------5-----------4------------|
Gb|-1-----------2----------------------------------------------------------------| do this a bunch then:
Db|-----2---2-------0---0-----------------------2---2-------2---2-------2---2----|
Ab|-------------------------7---4---6---2---0-----0---0-4-----4---4-2-----2---2--|
Eb|-0-----0---0-2-----2---2------------------------------------------------------|

eb|--------------------------------------------|--|-----------------------------------------|
Bb|--------------------------------------------|--|-----------------------------------------|
Gb|-1------1--1-------1--1-------1--1-------1--|x3|-1-------1--1------1--1------1-----------|
Db|-----2---------2----------2----------2------|--|-----2----------2---------2-----1--------|
Ab|-----------2----------0----------0----------|--|------------2---------0------------------|
Eb|-0------------------------------------------|--|-0---------------------------------------|

Repeat that twice then:

Intro part and let the last 3 chords ring out (A, C#m, B)


The distortion comes in
eb|----------------------------------------------------------------------------|
Bb|----------------------------------------------------------------------------|
Gb|-1-------------------9-9-9-9-9-9-9-9-9-4-4-4-2--2-2--2-6--6-6--6-4--4-4-4-4-|
Db|-2--2-2--2-4--4-4--4-9-9-9-9-9-9-9-9-9-4-4-4-2--2-2--2-6--6-6--6-4--4-4-4-4-|
Ab|-2--2-2--2-4--4-4--4-7-7-7-7-7-7-7-7-7-2-2-2-0--0-0--0-4--4-4--4-2--2-2-2-2-|
Eb|-0--0-0--0-2--2-2--2--------------------------------------------------------|
  |                                                                            |
eb|----------------------------------------------------------------------------|
Bb|----------------------------------------------------------------------------|
Gb|-1-------------------1313139-9-9-1111118-8-8-6--6-6--6-9--9-9--9-8--8-8-6-4-|
Db|-2--2-2--2-4--4-4--4--------------------------------------------------------|
Ab|-2--2-2--2-4--4-4--4-1111117-7-7-9-9-9-6-6-6-4--4-4--4-7--7-7--7-6--6-6-4-2-|
Eb|-0--0-0--0-2--2-2--2--------------------------------------------------------|



************************************

| /   slide up
| \   slide down
| h   hammer-on
| p   pull-off
| ~   vibrato
| +   harmonic
| x   Mute note
| b   Bend
| pb  Pre-bend
| br  Bend release
| pbr Pre-bend release
| brb Bend release bend

************************************
Добавлено: 28.11.2014
Другие материалы по этой песне:
  • Аккорды и текст

Страница создана 28.11.2014
http://primanota.ru/hotelier/an-introduction-to-album-chords.htm
Привет, Гость.
Предлагаем пройти революционный курс по гитаре.
Подарок от PrimaNota.Ru, забирай!