PrimaNota.ru - самый крупный в мире бесплатный архив песенных текстов, аккордов, табулатур и нот


The Hotelier - Among The Wildflowers - таба, видео

Регистрация Запомнить меня
Войти через:  Facebook Google Twitter Vk Yandex Mail.ru

The Hotelier - Among The Wildflowers - таба, видео

Печатать
Просмотров: 231
-------------------------------------------------------------------------------
                          AMONG THE WILDFLOWERS - The Hotelier
-------------------------------------------------------------------------------
Alright, this took my forever to figure out, but I tried my best to get this magnificent song tabbed out as accurately as I could. Enjoy

Tuning: Half-step Down

Intro:
eb|-------------|-----------------------------------|----|---7--7--7--7-----|
Bb|-------------|-----------------------------------|----|---8--8--8--8-----|
Gb|-0-----------|-0----0--------------0-------0-----|x3.5|---0--0--0--0-----|
Db|-5-5-5-5-5-5-|-5/10-9---9---0----4---------2-----|----|------------------|
Ab|-------------|--------10--10-5-5-----3-3-3---3-3-|----|------------------|
Eb|-------------|-----------------------------------|----|------------------|
                                                         |                  |
                                                       eb|------------------|
                                                       Bb|------------------|
                                                       Gb|---0--0--0--0-----|
                                                       Db|---2--2--2--2-----|
                                                       Ab|---3--3--3--3-----|
                                                       Eb|------------------|
Intro 2:
eb|---------------------------------|--|---------------------------------|--|
Bb|---------------------------------|--|---------------------------------|--|
Gb|---------------------------------|x2|---------------------------------|x2|
Db|-5-5-5-5-4-4-4-4-5-5-5-5-5-5-5-5-|--|-5-5-5-5-4-4-4-4-5-5-5-5-5-5-5-5-|--|
Ab|-5-5-5-5-5-5-5-5-3-3-3-3-3-3-3-3-|--|-5-5-5-5-5-5-5-5-3-3-3-3-3-3-3-3-|--|
Eb|-3-3-3-3-------------------------|--|-3-3-3-3-------------------------|--|
  |                                                                         |
eb|-7-7-7-7-5-5-5-5-7-7-7-7-7-7-7-7-|--|-7-7-7-7-5-5-5-5-7-7-7-7-7-7-7-7-|--|
Bb|-8-8-8-8-7-7-7-7-8-8-8-8-8-8-8-8-|--|-8-8-8-8-7-7-7-7-8-8-8-8-8-8-8-8-|--|
Gb|-0-0-0-0-0-0-0-0-0-0-0-0-0-0-0-0-|x2|-0-0-0-0-0-0-0-0-0-0-0-0-0-0-0-0-|x2|
Db|---------------------------------|--|---------------------------------|--|
Ab|---------------------------------|--|---------------------------------|--|
Eb|---------------------------------|--|---------------------------------|--|
                                    |                                       |
                                 eb|---|---------------------------------|--|
                                 Bb|---|---------------------------------|--|
                                 Gb|---|---------0---------0---0---0---0-|x2|
                                 Db|---|-------5-4(hbr)0-----------------|--|
                                 Ab|---|---0-2-----------3---3-------3---|--|
                                 Eb|12/|-3-------------------------------|--|


1st Verse: (other guitars, just strum these chords once)
eb|-2-2-2-2-2-2-2-2-3-3-3-3-3-3-3-3-3-3-3-3-3-3-3-3-3-3-3-3-3-3-3-3-|
Bb|-3-3-3-3-3-3-3-3-3-3-3-3-3-3-3-3-3-3-3-3-3-3-3-3-3-3-3-3-3-3-3-3-|
Gb|-2-2-2-2-2-2-2-2-0-0-0-0-0-0-0-0-0-0-0-0-0-0-0-0-0-0-0-0-0-0-0-0-| x4
Db|-0-0-0-0-0-0-0-0-2-2-2-2-2-2-2-2-2-2-2-2-2-2-2-2-2-2-2-2-2-2-2-2-|
Ab|-----------------2-2-2-2-2-2-2-2-3-3-3-3-3-3-3-3-3-3-3-3-3-3-3-3-|
Eb|-----------------0-0-0-0-0-0-0-0---------------------------------|


Chorus:
eb|---------------------------------|--|---------------------------------|
Bb|---------------------------------|--|---------------------------------|
Gb|---------------------------------|--|---------------------------------|
Db|-5-5-5-5-4-4-4-4-5-5-5-5-5-5-5-5-|x3|-5-5-5-5-4-4-4-4-5-5-5-5---------|
Ab|-5-5-5-5-5-5-5-5-3-3-3-3-3-3-3-3-|--|-5-5-5-5-5-5-5-5-3-3-3-3---------|
Eb|-3-3-3-3-------------------------|--|-3-3-3-3-------------------------|
  |                                                                      |
eb|-7-7-7-7-5-5-5-5-7-7-7-7-7-7-7-7-|--|-7-7-7-7-5-5-5-5-7-7-7-7---------|
Bb|-8-8-8-8-7-7-7-7-8-8-8-8-8-8-8-8-|--|-8-8-8-8-7-7-7-7-8-8-8-8---------|
Gb|-0-0-0-0-0-0-0-0-0-0-0-0-0-0-0-0-|x3|-0-0-0-0-0-0-0-0-0-0-0-0---------|
Db|---------------------------------|--|---------------------------------|
Ab|---------------------------------|--|---------------------------------|
Eb|---------------------------------|--|---------------------------------|
  |                                                                      |
eb|---------------------------------|--|---------------------------------|
Bb|---------------------------------|--|---------------------------------|
Gb|---------0---------0---0---0---0-|x3|---------0---------0---0---------|
Db|-------5-4(hbr)0-----------------|--|-------5-4(hbr)0-----------------|
Ab|---0-2-----------3---3-------3---|--|---0-2-----------3---3-----------|
Eb|-3-------------------------------|--|-3-------------------------------|
             *hbr = half-step bend, then release


2nd Verse:
eb|------------------------7---------|
Bb|---7---------8--------------------|
Gb|-7-------4/7--------7/9-----------|x2
Db|----------------------------------|
Ab|----------------------------------|
Eb|----------------------------------|

Pre-Chorus:
eb|-----------------------------------------------------------------|
Bb|-----------------------------------------------------------------|
Gb|-7-7-7-7-7-7-7-7-----------------5-5-5-5-5-5-5-5-5-5-5-5-5-5-5-5-|
Db|-7-7-7-7-7-7-7-7-2-2-2-2-2-2-2-2-5-5-5-5-5-5-5-5-5-5-5-5-5-5-5-5-|
Ab|-5-5-5-5-5-5-5-5-2-2-2-2-2-2-2-2-3-3-3-3-3-3-3-3-3-3-3-3-3-3-3-3-|
Eb|-----------------0-0-0-0-0-0-0-0---------------------------------|
  |                                                                 |
eb|-5-5-5-5-5-5-5-5-3-3-3-3-3-3-3-3-7-7-7-7-7-7-7-7-7-7-7-7-7-7-7-7-|
Bb|-7-7-7-7-7-7-7-7-3-3-3-3-3-3-3-3-8-8-8-8-8-8-8-8-8-8-8-8-8-8-8-8-|
Gb|-0-0-0-0-0-0-0-0-0-0-0-0-0-0-0-0-0-0-0-0-0-0-0-0-0-0-0-0-0-0-0-0-|
Db|-----------------------------------------------------------------|
Ab|-----------------------------------------------------------------|
Eb|-----------------------------------------------------------------|


Chorus:
eb|---------------------------------|--|---------------------------------|
Bb|---------------------------------|--|---------------------------------|
Gb|---------------------------------|--|---------------------------------|
Db|-5-5-5-5-4-4-4-4-5-5-5-5-5-5-5-5-|x7|-5-5-5-5-4-4-4-4-5-5-5-5-5-5-5-5-|
Ab|-5-5-5-5-5-5-5-5-3-3-3-3-3-3-3-3-|--|-5-5-5-5-5-5-5-5-3-3-3-3-3-3-3-3-|
Eb|-3-3-3-3-------------------------|--|-3-3-3-3-------------------------|
  |                                                                      |
eb|-7-7-7-7-5-5-5-5-7-7-7-7-7-7-7-7-|--|-7-7-7-7-5-5-5-5-7-7-7-7-7-7-7-7-|
Bb|-8-8-8-8-7-7-7-7-8-8-8-8-8-8-8-8-|--|-8-8-8-8-7-7-7-7-8-8-8-8-8-8-8-8-|
Gb|-0-0-0-0-0-0-0-0-0-0-0-0-0-0-0-0-|x7|-0-0-0-0-0-0-0-0-0-0-0-0-0-0-0-0-|
Db|---------------------------------|--|---------------------------------|
Ab|---------------------------------|--|---------------------------------|
Eb|---------------------------------|--|---------------------------------|
  |                                                                      |
eb|---------------------------------|--|---------------------------------|
Bb|---------------------------------|--|---------------------------------|
Gb|---------0---------0---0---0---0-|x7|---------0---------0---0---------|
Db|-------5-4(hbr)0-----------------|--|-------5-4(hbr)0-----------------|
Ab|---0-2-----------3---3-------3---|--|---0-2-----------3---3-----------|
Eb|-3-------------------------------|--|-3-------------------------------|


Interlude:
eb|------------------------------------------------|--|----------------------------------------|
Bb|------------------------------------------------|--|----------------------------------------|
Gb|-4-----4-----------4-4-4-4-----4-----4----------|x5|-4-----4-----------4-4-4-4-4-4-4-4-4----|
Db|-5-5-5-5-5-5-5-5-5-5-5-5-5-5-5-5-5-5-5-5--------|--|-5-5-5-5-5-5-5-5-5-5-5-5-5-5-5-5-5-5----|
Ab|-3-3-3-3-3-3-3-3-3-3-3-3-3-3-3-3-3-3-3-3--------|--|-3-3-3-3-3-3-3-3-3-3-3-3-3-3-3-3-3-3----|
Eb|-----------------------------------------0--3-0-|--|----------------------------------------|
      pm.   . . . . .         . .   . .   .               . .   . . . . .  


eb|-----------------------------------------------------------------------------------------------|
Bb|-----------------------------------------------------------------------------------------------|
Gb|-4-4-4-4-4-4-4-4-4-4-4-4-4-4-4-4-4-4-4-4--------4-4-4-4-4-4-4-4-4-4-4-4-4-4-4-4-4-4-4-4--------| x3
Db|-5-5-5-5-5-5-5-5-5-5-5-5-5-5-5-5-5-5-5-5--------5-5-5-5-5-5-5-5-5-5-5-5-5-5-5-5-5-5-5-5--------|
Ab|-3-3-3-3-3-3-3-3-3-3-3-3-3-3-3-3-3-3-3-3--------2-2-2-2-2-2-2-2-2-2-2-2-2-2-2-2-2-2-2-2--------|
Eb|-----------------------------------------0--3-0-----------------------------------------0--3-0-|
  |                                                                                               |
eb|-----------------------------------------------------------------------------------------------|
Bb|-----------------------------------------------------------------------------------------------|
Gb|-----------------------------------------------------------------------------------------------| x3
Db|-4(hbr)2---0-4(hbr)2---0-4(hbr)2---0------------4(hbr)2---0-4(hbr)2---0-4(hbr)2---0------------|
Ab|-----------------------------------------------------------------------------------------------|
Eb|-----------------------------------------------------------------------------------------------|



Outro:
eb|-----------------------------------------------------------------------|
Bb|-----------------------------------------------------------------------|
Gb|-0----0-2----2-4---------4-----4-5---5-4---4-2---------2-----------2---|
Db|-----------------------------------------------------------------------|
Ab|-----------------------------------------------------------------------|
Eb|-0--0---2--2---3--3--3--3--3--3--5--5--3--3--2--2--2--2--2--2--2--2----|

eb|---------------------------------------------------------|
Bb|---------------------------------------------------------|
Gb|-0----0-2----2-4---------------4-2---------2-------------|
Db|---------------------------------------------------------|
Ab|---------------------------------------------------------|
Eb|-0--0---2--2---3--3--3--3--3--3--2--2--2--2--2--2--2--2--|

eb|-----------------------------------------------------------------------|
Bb|-----------------------------------------------------------------------|
Gb|-0----0-2----2-4---------4-----4-5---5-4---4-2---------2-----------2---|
Db|-----------------------------------------------------------------------|
Ab|-----------------------------------------------------------------------|
Eb|-0--0---2--2---3--3--3--3--3--3--5--5--3--3--2--2--2--2--2--2--2--2----|
  |                                                                       |
eb|-----------------------------------------------------------------------|
Bb|-8----8-10---1012----12-------12-13--1312--12-10-------10--------------|
Gb|-----------------------------------------------------------------------|
Db|-----------------------------------------------------------------------|
Ab|-7------9------10--------10------12----10-----9----------9-------------|
Eb|-----------------------------------------------------------------------|

eb|---------------------------------------------------------|
Bb|---------------------------------------------------------|
Gb|-0----0-2----2-4---------------4-2---------2-------------|
Db|---------------------------------------------------------|
Ab|---------------------------------------------------------|
Eb|-0--0---2--2---3--3--3--3--3--3--2--2--2--2--2--2--2--2--|
  |                                                         |
eb|---------------------------------------------------------|
Bb|-8----8-10---1012-----12------12-10----------------------|
Gb|---------------------------------------------------------|
Db|---------------------------------------------------------|
Ab|-7------9------10----------------9-----------------------|
Eb|---------------------------------------------------------|


************************************

| /   slide up
| \   slide down
| h   hammer-on
| p   pull-off
| ~   vibrato
| +   harmonic
| x   Mute note
| b   Bend
| pb  Pre-bend
| br  Bend release
| hbr half-step bend, release
| pbr Pre-bend release
| brb Bend release bend

************************************
                                        
                                            
                                            
                                        
                                                                
                        
                        
                        
                                                    
/* Ultimate-Guitar - Tab Pages */
(function() {
	var opts = {
		artist: "The Hotelier",
		song: "Among The Wildflowers",
		genre: "",
		adunit_id: 39382312,
		div_id: "cf_async_" + Math.floor((Math.random() * 999999999)),
		hostname: "srv.tonefuse.com"
	};
	document.write('');var c=function(){cf.showAsyncAd(opts)};if(window.cf)c();else{cf_async=!0;var r=document.createElement("script"),s=document.getElementsByTagName("script")[0];r.async=!0;r.src="//"+opts.hostname+"/showads/showad.js";r.readyState?r.onreadystatechange=function(){if("loaded"==r.readyState||"complete"==r.readyState)r.onreadystatechange=null,c()}:r.onload=c;s.parentNode.insertBefore(r,s)};
})();


                        
                                                    
                                UG plus: remove banner
                                                                    
                                    
                                    
                                                            
                                                

                    

                
                
                
                    
                        comments
                    
                                        
                        print report bad tab
                    
                                    
                
                                    
                
                    
                             
    
        4 comments total. Showing first comments. 
            
    
                                
                
                
                    
                        
                            
                                
                                    
                                    
                                
                                                                    -1
                                                            
                            reply
                            
                            
                        
                        fadeindreams wrote on January 17 2015, 01:12 pm  
                    
                    
                        Pretty damn close. Great job overall.

I have two small corrections:
This part from your tab

eb|---------------------------------|--|---------------------------------
Bb|---------------------------------|--|---------------------------------
Gb|---------0---------0---0---0---0-|x7|---------0---------0---0---------
Db|-------5-4(hbr)0-----------------|--|-------5-4(hbr)0-----------------
Ab|---0-2-----------3---3-------3---|--|---0-2-----------3---3-----------
Eb|-3-------------------------------|--|-3-------------------------------

Should be (or at least this is closer):

eb|---------------------------------|--|
Bb|---------------------------------|--|
Gb|--------------0----0---0---0---0-|--|
Db|-------0-2-4---------------------|--|
Ab|---0-2-----------3---3-------3---|--|
Eb|-3-------------------------------|--|

Also, while it's minor, I think that instead of descending the A string to fret the D (and the C) in the intro, they instead fret it on E, as follows:

eb|-------------|-----------------------------------|----|
Bb|-------------|-----------------------------------|----|
Gb|-0-----------|-0----0----------------------0-----|----|
Db|-5-5-5-5-5-5-|-5/10-9---9---0----0-------0-------|----|
Ab|-------------|--------10--10---9---9---7---------|----|
Eb|-------------|---------------10------8-----------|----|

Anyway, thanks for submitting!
                    
                
            
                                
                
                
                    
                        
                            
                                
                                    
                                    
                                
                                                                    -2
                                                            
                            reply
                            
                            
                        
                        fadeindreams wrote on January 17 2015, 01:13 pm  
                    
                    
                        Pretty damn close. Great job overall.

I have two small corrections:
This part from your tab

eb|---------------------------------|--|---------------------------------
Bb|---------------------------------|--|---------------------------------
Gb|---------0---------0---0---0---0-|x7|---------0---------0---0---------
Db|-------5-4(hbr)0-----------------|--|-------5-4(hbr)0-----------------
Ab|---0-2-----------3---3-------3---|--|---0-2-----------3---3-----------
Eb|-3-------------------------------|--|-3-------------------------------

Should be (or at least this is closer):

eb|---------------------------------|--|
Bb|---------------------------------|--|
Gb|--------------0----0---0---0---0-|--|
Db|-------0-2-4---------------------|--|
Ab|---0-2-----------3---3-------3---|--|
Eb|-3-------------------------------|--|

Also, while it's minor, I think that instead of descending the A string to fret the D (and the C) in the intro, they instead fret it on E, as follows:

eb|-------------|-----------------------------------|----|
Bb|-------------|-----------------------------------|----|
Gb|-0-----------|-0----0----------------------0-----|----|
Db|-5-5-5-5-5-5-|-5/10-9---9---0----0-------0-------|----|
Ab|-------------|--------10--10---9---9---7---------|----|
Eb|-------------|---------------10------8-----------|----|
Добавлено: 08.05.2015
Другие материалы по этой песне:

Страница создана 08.05.2015
http://primanota.ru/hotelier/among-wildflowers-chords.htm
Привет, Гость.
Предлагаем пройти революционный курс по гитаре.
Подарок от PrimaNota.Ru, забирай!