PrimaNota.ru - самый крупный в мире бесплатный архив песенных текстов, аккордов, табулатур и нот


Hotel Books - Wooden Floorboards - таба, видео

Регистрация Запомнить меня
Войти через:  Facebook Google Twitter Vk Yandex Mail.ru

Hotel Books - Wooden Floorboards - таба, видео

Печатать
Просмотров: 104
Tuning: standard or drop d, drop d is for the open low e near the end

0:00 - 0:57

e|------------------8~-6~-5~-------------------------------------------------|
B|----6~-5~-6~-------------------6~-5~-6~------6~-5~-3~----------------------|
G|----------------------------3~-----------5~--------------------------------| x2
D|---------------------------------------------------------------------------|
A|-5~-----------5~-----------------------------------------------------------|
E|---------------------------------------------------------------------------|

0:58 - 1:27

e|-------------------------8~-6~-5~------------------------------------------|
B|-----------6~-5~-6~-------------------6~-5~-6~------6~-5~-3~---------------|
G|---------------------------------------------------------------------------| x1
D|---------------------------------------------------------------------------|
A|----------------------5~-----------1~-----------3~-------------------------|
E|---------------------------------------------------------------------------|

1:27 - 1:55

e|------------------8~-6~-5~-------------------------------------------------|
B|----6~-5~-6~-------------------6~-5~-6~------6~-5~-3~----------------------|
G|----------------------------3~-----------5~--------------------------------| x1
D|---------------------------------------------------------------------------|
A|-5~-----------5~-----------------------------------------------------------|
E|---------------------------------------------------------------------------|

1:55 - 2:23

e|-------------------------8~-6~-5~------------------------------------------|
B|-----------6~-5~-6~-------------------6~-5~-6~------6~-5~-3~---------------|
G|---------------------------------------------------------------------------| x1
D|---------------------------------------------------------------------------|
A|----------------------5~-----------1~-----------3~-------------------------|
E|---------------------------------------------------------------------------|

2:24 - 2:51

e|------------------8~-6~-5~-------------------------------------------------|
B|----6~-5~-6~-------------------6~-5~-6~------6~-5~-3~----------------------|
G|----------------------------3~-----------5~--------------------------------| x1
D|---------------------------------------------------------------------------|
A|-5~-----------5~-----------------------------------------------------------|
E|---------------------------------------------------------------------------|

2:52 - 3:21 

e|-------------------------8~-6~-5~------------------------------------------|
B|-----------6~-5~-6~-------------------6~-5~-6~------6~-5~-3~---------------|
G|---------------------------------------------------------------------------| x1
D|---------------------------------------------------------------------------|
A|----------------------5~-----------1~-----------3~-------------------------|
E|---------------------------------------------------------------------------|

3:28 - end

e|---------------------------------------------------------------------------|
B|-6~-5~-6~-----6~-5~-6~-------6~-5~-6~----6~-5~-3~~-------------------------|
G|---------------------------------------------------------------------------|
D|-------------------------3~------------5~----------------------------------|
A|---------------------------------------------------------------------------|
E|----------0~---------------------------------------------------------------|

Добавлено: 21.03.2016
Другие материалы по этой песне:
  • Аккорды и текст

Страница создана 21.03.2016
http://primanota.ru/hotel-books/wooden-floorboards-chords.htm
Привет, Гость.
Предлагаем пройти революционный курс по гитаре.
Подарок от PrimaNota.Ru, забирай!