PrimaNota.ru - самый крупный в мире бесплатный архив песенных текстов, аккордов, табулатур и нот


Hotel Books - Nothing Was Different - таба, видео

Регистрация Запомнить меня
Войти через:  Facebook Google Twitter Vk Yandex Mail.ru

Hotel Books - Nothing Was Different - таба, видео

Печатать
Просмотров: 128
-------------------------------------------------------------------------------
                             Nothing was Different - Hotel Books
-------------------------------------------------------------------------------
Tabbed by: J. Wahl
E-mail: jonasjorge97@gmail.com


Feel free to improve the tab as it is a very rough sketch of the original song.
Second guitar is not complete as it plays a few notes in the chorus.

Tuning: Drop D (DADGBe) 

Intro (1st Guitar) 00:00
e|--------------------------------|
B|--------------------------------|
G|--------------------------------|
D|----11-9----7-9---12-11---------| x6
A|--9---------------------7-11-12-|
D|---------12-----7---------------|



Intro (2nd Guitar) 00:11
e|---------9----------12-9--------|
B|-9-10-12---12-10-9--------------|
G|--------------------------------|
D|--------------------------------| x4
A|--------------------------------|
D|--------------------------------|


Bridge (2nd Guitar) 00:34
e|--------------------------------|
B|-9---10-12-------9---10-10/14---|
G|--------------------------------|
D|--------------------------------|
A|--------------------------------|
D|--------------------------------|



Chorus 00:43
e|---------------------------------------------------------------------------|
B|---------------------------------------------------------------------------|
G|---------------------------------------------------------------------------|
D|--7--14-12-11------/11-9-7--7-11-14------11h12p11--7---9-------------------| x4
A|----------------7---------------------9------------------------------------|
D|---------------------------------------------------------------------------|
 
Verse 01:44
e|---------------------------------------------------------------------------|
B|---------------------------------------------------------------------------|
G|---------------------------------------------------------------------------| x2
D|---14-------11-9-7------11-12-14------6-7-9--------------------------------|
A|-7-----------------------------------7-------------------------------------|
D|---------12-----------7----------------------------------------------------|

Chorus 02:30
e|---------------------------------------------------------------------------|
B|---------------------------------------------------------------------------|
G|---------------------------------------------------------------------------|
D|--7--14-12-11------/11-9-7--7-11-14------11h12p11--7---9-------------------| x2
A|----------------7---------------------9------------------------------------|
D|---------------------------------------------------------------------------|
 

Enjoy!




************************************

| /   slide up
| \   slide down
| h   hammer-on
| p   pull-off
| ~   vibrato
| +   harmonic
| x   Mute note
| b   Bend
| pb  Pre-bend
| br  Bend release
| pbr Pre-bend release
| brb Bend release bend

************************************
Добавлено: 21.03.2016
Вам также может быть интересно:
Другие материалы по этой песне:
  • Аккорды и текст

Страница создана 21.03.2016
http://primanota.ru/hotel-books/nothing-was-different-chords.htm
Привет, Гость.
Предлагаем пройти революционный курс по гитаре.
Подарок от PrimaNota.Ru, забирай!