PrimaNota.ru - самый крупный в мире бесплатный архив песенных текстов, аккордов, табулатур и нот


Hotel Books - I Died With You - таба, видео

Регистрация Запомнить меня
Войти через:  Facebook Google Twitter Vk Yandex Mail.ru

Hotel Books - I Died With You - таба, видео

Печатать
Просмотров: 192
Tabbed by: jcameronp
Tuning: Drop D

--

Intro / Verse 1

Guitar 1:

e|------5-------5------4------4---------------0---------------0--------------|
B|---------------------------------------------------------------------------|
G|------------------------------------2-------------2------------------------|
D|-4-6----4-6----2-6-----2-6-----0-6----0-6-----0-6-----0-6------------------|
A|---------------------------------------------------------------------------|
D|---------------------------------------------------------------------------|

                                                                                     repeated throughout
                                                                                     verse
e|------5------5---------------------2-------2-------2---------2-------------|
B|---------------------------------------------------------------------------|
G|---------------------2-----2-----------------------------------------------|
D|-4-6----4-6-----0-6----0-6----0-6----0-6------0-6------0-6-----------------|
A|---------------------------------------------------------------------------|
D|---------------------------------------------------------------------------|

Guitar 2:

e|---------------------------------------------------------------------------|
B|---------------------------------------------------------------------------|
G|-9~-----8~-----6~-----8~-----9~-----8~-----9~------------------------------|
D|-7~-----6~-----4~-----6~-----7~-----6~-----7~------------------------------|
A|-7~-----6~-----4~-----6~-----7~-----6~-----7~------------------------------|
D|-7~-----6~-----4~-----6~-----7~-----6~-------------------------------------|

Guitar 1 keeps playing intro 

Guitar 2:

e|-5/9--9/7--7/4--4h5p4--2/12-12--5------------------------------------------|
B|---------------------------------------------------------------------------|
G|---------------------------------------------------------------------------| x2
D|---------------------------------------------------------------------------|
A|---------------------------------------------------------------------------|
D|---------------------------------------------------------------------------|

--

Chorus

Guitar 1:

e|-5-5-5-5-5-----------------------------------------------------------------|
B|---------------------------------------------------------------------------|
G|---------------------------------------------------------------------------| x1
D|---------------------------------------------------------------------------|
A|---------------------------------------------------------------------------|
D|---------------------------------------------------------------------------|

then pick each note over and over

e|-5---9---7---12---5---7---4---7--------------------------------------------|
B|---------------------------------------------------------------------------|
G|---------------------------------------------------------------------------| x2
D|---------------------------------------------------------------------------|
A|---------------------------------------------------------------------------|
D|---------------------------------------------------------------------------|

then

e|-5/9--9/7--7/4--4h5p4--2/12-12--5------------------------------------------|
B|---------------------------------------------------------------------------|
G|---------------------------------------------------------------------------| x2
D|---------------------------------------------------------------------------|
A|---------------------------------------------------------------------------|
D|---------------------------------------------------------------------------|

Guitar 2: (strum each chord)

e|---------------------------------------------------------------------------|
B|---------------------------------------------------------------------------|
G|-------9-----------9-----------9-----------9-------------------------------| x4
D|-7-----9-----6-----9-----4-----9-----4-----9-------------------------------|
A|-7-----7-----6-----7-----4-----7-----4-----7-------------------------------|
D|-7-----------6-----------4-----------4-------------------------------------|

--

Post-Chorus

Guitar 1: silent

Guitar 2: (strum chords until it gets to the 7-7 9-9 11-11 part)

e|---------------------------------------------------------------------------|
B|---------------------------------------------------------------------------|
G|------9--------------------------------------------------------------------|
D|-7----9----6----7----6----7-7--9-9--11-11--14-14-14--7-7--7-7-7--7-7--7-7-7|
A|-7----7----6----7----6----7-7--9-9--11-11--14-14-14--7-7--7-7-7--7-7--7-7-7|
D|-7---------6----7----6----7-7--9-9--11-11--14-14-14--7-7--7-7-7--6-6--6-6-6|

--

Verse 2

Guitar 1 and / or 2:

e|---------------------------------------------------------------------------|
B|---------------------------------------------------------------------------|
G|---------------------------------------------------------------------------| 
D|-7~------------------------------------------------------------------------|
A|-7~------------------------------------------------------------------------|
D|-7~------------------------------------------------------------------------|

Verse is just bass for a while then

Guitar 1:

Guitar 1:

e|------5-------5------4------4---------------0---------------2--------------|
B|---------------------------------------------------------------------------|
G|------------------------------------2-------------2------------------------|
D|-4-6----4-6----2-6-----2-6-----0-6----0-6-----0-6-----0-6------------------|
A|---------------------------------------------------------------------------|
D|---------------------------------------------------------------------------|

                                                                                     repeated throughout
                                                                                     verse
e|------5------5---------------------2-------2-------2---------2-------------|
B|---------------------------------------------------------------------------|
G|---------------------2-----2-----------------------------------------------|
D|-4-6----4-6-----0-6----0-6----0-6----0-6------0-6------0-6-----------------|
A|---------------------------------------------------------------------------|
D|---------------------------------------------------------------------------|

Guitar 2:

e|-5-2---5-2------4-------12-9----12-9-----9-5-9-7---------------------------|
B|-----2-----2-5---------------10------10------------------------------------|
G|-------------------4-------------------------------------------------------| x5 / until "I have nothing..."
D|---------------------------------------------------------------------------|
A|---------------------------------------------------------------------------|
D|---------------------------------------------------------------------------|

A 3rd guitar: (pick each note over and over)

e|-14--16--17--19------------------------------------------------------------|
B|---------------------------------------------------------------------------|
G|---------------------------------------------------------------------------| x4 / until "I have nothing..."
D|---------------------------------------------------------------------------|
A|---------------------------------------------------------------------------|
D|---------------------------------------------------------------------------|

--

Done














Добавлено: 21.03.2016
Другие материалы по этой песне:
  • Аккорды и текст

Страница создана 21.03.2016
http://primanota.ru/hotel-books/i-died-with-you-chords.htm
Привет, Гость.
Предлагаем пройти революционный курс по гитаре.
Подарок от PrimaNota.Ru, забирай!