PrimaNota.ru - самый крупный в мире бесплатный архив песенных текстов, аккордов, табулатур и нот


Hot Water Music - There Are Already Roses - текст песни, бас-таба, видео

Регистрация Запомнить меня
Войти через:  Facebook Google Twitter Vk Yandex Mail.ru

Hot Water Music - There Are Already Roses - текст песни, бас-таба, видео

Печатать
Просмотров: 121
Уроки эстрадного вокала в Санкт-Петербурге
-------------------------------------------------------------------------------
                             Hot Water Music - There Are Already Roses
-------------------------------------------------------------------------------

Tuning: Standard

Intro

G|-----------------------------------------|
D|-----------0-----------------------------|
A|-3~-------1-3~----------------------5h65-|
E|---------------4-3~--6-4~--3-46~--8------|

Verse

G|---------------------------------------------------------|
D|---------------------------------------------------------|
A|-3--3-3-3-3-3----------------------------------------6-5-|
E|--------------4-3-3-3-3-3-3-3-4-4-4-4-4-4-4-6-6-6-6-8----|

G|-----------------------------------------------------------|
D|--------------3-5-5-5-5-5-5-5-6-6-6-6-6-6-6-8-8-8-10--8-6--|
A|-3--3-3-3-3-3--------------------------------------------6-|
E|-----------------------------------------------------------|

G|-----------------------------------------------------------|
D|-----------------------------------------------------------|
A|-3--3-3-1-3------------------------------------------8-6-5-|
E|-----------1-4-3-3-3-3-3-1-3-6-4-4-4-4-4-4-8-6-6-6-6-------|

G|-------------------------------------------------------------|
D|-------------------------------------------------8-6---6-----|
A|-3--3-3-1-3------------------------------------------8---8-6-|
E|-----------1-4-3-3-3-3-3-1-3-6-4-4-4-4-4-4-8-6-6-------------|

G|----------------------------------------------------------|
D|----------------------------------------------------------|
A|-3--3-3-3-3-3-5---------------------------------------6-5-| x4
E|----------------3-3-3-3-3-3-3-4-4-4-4-4-4-4-6-6-6-6-8-----|

Chorus

G|-------------------------------------------------------------|
D|------------------6-5-3-1-1-3--------------------------------|
A|-3--3-3-3-3-3-3-3----------------------------------------6-5-|
E|------------------------------4--4-3-4-4-4-3-4-4-4-3-4-4-----|

G|---------------------------------------------------------|
D|-----------------------1-1-3---------6p5-----------------|
A|-3--3-3-3-3-3-3-3-----------------------6----------8-6-5-|
E|------------------4-3-1------4--4-4-4-----4--4-4-4-------|

G|-------------------------------------------------------------|
D|------------------6-5-3-1-1-3--------------------------------|
A|-3--3-3-3-3-3-3-3--------------------------------------------|
E|------------------------------4--4-3-4-4-4-3-4-4-4-3-4-4-4-4-|

G|---------------------------------------------------------------|
D|---------------------------------------------------------------|
A|---------------------------------------------------------8-6-5-|
E|-3-3-3-3-3-3-3-3-3-3-3-3-3-3-3-3-4-4-4-4-4-4-4-4-4-4-4-4-------|

Pre-Verse

G|-----------------------------------------------------------|
D|-----------------------------------------------------------|
A|-3--3-3-1-3------------------------------------------8-6-5-|
E|-----------1-4-3-3-3-3-3-1-3-6-4-4-4-4-4-4-8-6-6-6-6-------|

G|-------------------------------------------------------------|
D|-------------------------------------------------8-6---6-----|
A|-3--3-3-1-3------------------------------------------8---8-6-|
E|-----------1-4-3-3-3-3-3-1-3-6-4-4-4-4-4-4-8-6-6-------------|

Verse

G|----------------------------------------------------------|
D|----------------------------------------------------------|
A|-3--3-3-3-3-3-5---------------------------------------6-5-| x4
E|----------------3-3-3-3-3-3-3-4-4-4-4-4-4-4-6-6-6-6-8-----|

Chorus 

G|-------------------------------------------------------------|
D|------------------6-5-3-1-1-3--------------------------------|
A|-3--3-3-3-3-3-3-3----------------------------------------6-5-|
E|------------------------------4--4-3-4-4-4-3-4-4-4-3-4-4-----|

G|---------------------------------------------------------|
D|-----------------------1-1-3---------6p5-----------------|
A|-3--3-3-3-3-3-3-3-----------------------6----------8-6-5-|
E|------------------4-3-1------4--4-4-4-----4--4-4-4-------|

G|-------------------------------------------------------------|
D|------------------6-5-3-1-1-3--------------------------------|
A|-3--3-3-3-3-3-3-3--------------------------------------------|
E|------------------------------4--4-3-4-4-4-3-4-4-4-3-4-4-4-4-|

G|--------------------------------------------------------------|
D|--------------------------------------------------------------|
A|---------------------------------------------------------6h8--|
E|-3-3-3-3-3-3-3-3-3-3-3-3-3-3-3-3-4-4-4-4-4-4-4-4-4-4-4-4----6-|

Solo

G|-------------------------------------------------------------------------------------|
D|-------------------------------------------------------------------------------------|
A|--------------------------8-6-5-3--3-3-3-3-3-3-3-3-3-5-----------------------------6-|
E|-6--6-6-6-6-6-6-6-6-6-6-6-----------------------------4--4-4-4-4-4-4-4-4-4-4-4-4-4---|

G|---------------------------|
D|-6--6-6-6p5-6p5-6p5--------|
A|-----------6---6---6-8-6-5-|
E|---------------------------|

G|-------------------------------------------------------------------------------------|
D|-------------------------------------------------------------------------------------|
A|--------------------------8-6-5-3--3-3-3-3-3-3-3-3-3-5-----------------------------6-|
E|-6--6-6-6-6-6-6-6-6-6-6-6-----------------------------4--4-4-4-4-4-4-4-4-4-4-4-4-4---|

G|------------------------------------------------------------|
D|-------------------------------------------------8-6-6------|
A|----------------------------------------------------8-8-6-5-|
E|-6--6-6-6-6-6-6-6-6-6-6-6-6-6-8-6--6-6-6-6-6-6-6------------|

Chorus

G|-------------------------------------------------------------|
D|------------------6-5-3-1-1-3--------------------------------|
A|-3--3-3-3-3-3-3-3----------------------------------------6-5-|
E|------------------------------4--4-3-4-4-4-3-4-4-4-3-4-4-----|

G|---------------------------------------------------------|
D|-----------------------1-1-3---------6p5-----------------|
A|-3--3-3-3-3-3-3-3-----------------------6----------8-6-5-|
E|------------------4-3-1------4--4-4-4-----4--4-4-4-------|

G|-------------------------------------------------------------|
D|------------------6-5-3-1-1-3--------------------------------|
A|-3--3-3-3-3-3-3-3--------------------------------------------|
E|------------------------------4--4-3-4-4-4-3-4-4-4-3-4-4-4-4-|

G|--------------------------------------------------------------|
D|--------------------------------------------------------------|
A|---------------------------------------------------------6h8--|
E|-3-3-3-3-3-3-3-3-3-3-3-3-3-3-3-3-4-4-4-4-4-4-4-4-4-4-4-4----6-|


G|----------------------------------------|
D|----------------------------------------|
A|---------------------------------3~~----|
E|-3-3-3-3-3-3-3-3-3-3-3-3-3-3-3-3--------|


| h  hammer-on
| p  pull-off
===============================================================================
Добавлено: 06.09.2015
Другие материалы по этой песне:
  • Аккорды и текст

Страница создана 03.07.2012
http://primanota.ru/hot-water-music/there-are-already-roses-chords.htm
Привет, Гость.
Предлагаем пройти революционный курс по гитаре.
Подарок от PrimaNota.Ru, забирай!