PrimaNota.ru - самый крупный в мире бесплатный архив песенных текстов, аккордов, табулатур и нот


Hot Water Music - Boy Youre Gonna Hurt Someone - бас-таба, видео

Регистрация Запомнить меня
Войти через:  Facebook Google Twitter Vk Yandex Mail.ru

Hot Water Music - Boy Youre Gonna Hurt Someone - бас-таба, видео

Печатать
Просмотров: 62
Title: Boy, You're Gonna Hurt Someone
Artist: Hot Water Music
Album: Exister
Music: Hot Water Music
Tempo = 189
Jason Black - Bass

INTRO: (9/4)
 
G|-------------------------------------|-------------------------------------|
D|-------------------------------------|-------------------------------------|
A|-7\\\--------------------------------|-------------------------------------|
E|-0---0-------------------------------|-------------------------------3^----|
   1 + 2 + 3 + 4 + 5 + 6 + 7 + 8 + 9 +   1 + 2 + 3 + 4 + 5 + 6 + 7 + 8 + 9 +

G|-------------------------------------|-------------------------------------|
D|-------------------------------------|-------------------------------------|
A|-------------------------------------|-------------------------------------|
E|-0-----------------------------------|-------------------------------------|
   1 + 2 + 3 + 4 + 5 + 6 + 7 + 8 + 9 +   1 + 2 + 3 + 4 + 5 + 6 + 7 + 8 + 9 +

G|-------------------------------------|-------------------------------------|
D|-------------------------------------|-------------------------------------|
A|-7\\\--------------------------------|-------------------------------------|
E|-0---0-------------------------------|-------------------------------3^----|
   1 + 2 + 3 + 4 + 5 + 6 + 7 + 8 + 9 +   1 + 2 + 3 + 4 + 5 + 6 + 7 + 8 + 9 +

G|-------------------------------------|-------------------------------------||
D|-------------------------------------|-------------------------------------||
A|-------------------------------------|-------------------------------------||
E|-0-----------------------------------|-------------------------------------||
   1 + 2 + 3 + 4 + 5 + 6 + 7 + 8 + 9 +   1 + 2 + 3 + 4 + 5 + 6 + 7 + 8 + 9 +

PRE-VERSE:

G|-----------------|-----------------|-----------------|-----------------||
D|-----------------|-----------------|-----------------|-----------------||
A|-----------------|-----------------|-----------------|-----------------||
E|-3-3-3-3-3-3-3-3-|-3-3-3-3-3-3-3-3-|-2-2-2-2-2-2-2-2-|-1-1-1-1-1-1-1-1-||
   1 + 2 + 3 + 4 +   1 + 2 + 3 + 4 +   1 + 2 + 3 + 4 +   1 + 2 + 3 + 4 +

VERSE: (9/4)
 
G|-------------------------------------|-------------------------------------|
D|-------------------------------------|-------------------------------------|
A|-------------------5-5-------0-4-5-4-|-------------------5-5-------0-4-5-4-|
E|-0-0-2-3-2-0-3-3-2-----2-3-2---------|-0-0-2-3-2-0-3-3-2-----2-3-2---------|
   1 + 2 + 3 + 4 + 5 + 6 + 7 + 8 + 9 +   1 + 2 + 3 + 4 + 5 + 6 + 7 + 8 + 9 +

G|-------------------------------------|-------------------------------------||
D|-------------------------------------|-------------------------------------||
A|-------------------5-5-------0-4-5-4-|-------------------5-5-------0-4-5-4-||
E|-0-0-2-3-2-0-3-3-2-----2-3-2---------|-0-0-2-3-2-0-3-3-2-----2-3-2---------||
   1 + 2 + 3 + 4 + 5 + 6 + 7 + 8 + 9 +   1 + 2 + 3 + 4 + 5 + 6 + 7 + 8 + 9 +

PRE-CHORUS:

G|-----------------|-----------------|-----------------|-----------------||
D|-----------------|-----------------|-----------------|-----------------||
A|-----------------|-----------------|-----------------|-----------------||
E|-3-3-3-3-3-3-3-3-|-3-3-3-3-3-3-3-3-|-2-2-2-2-2-2-2-2-|-1-1-1-1-1-1-1-1-||
   1 + 2 + 3 + 4 +   1 + 2 + 3 + 4 +   1 + 2 + 3 + 4 +   1 + 2 + 3 + 4 +

CHORUS:
    
G|-----------------|-----------------|-----------------|-----------------|
D|-----------------|-----------------|-----------------|-----------------|
A|-7-7-7-7-7-7-7-7-|-7-7-7-7-7-7-7-7-|-5-5-5-5-5-5-5-5-|-5-5-5-5-5-5-5-5-|
E|-----------------|-----------------|-----------------|-----------------|
   1 + 2 + 3 + 4 +   1 + 2 + 3 + 4 +   1 + 2 + 3 + 4 +   1 + 2 + 3 + 4 +

G|-----------------|-----------------|-----------------|-----------------|
D|-----------------|-----------------|-----------------|-----------------|
A|-------------5-5-|-5-0-0-0-0-0-0-0-|-----------------|-------------5---|
E|-3-3-3-3-3-3-----|-----------------|-3-3-3-5-5-5-0-0-|-0-0-0-0-5-7---7-|
   1 + 2 + 3 + 4 +   1 + 2 + 3 + 4 +   1 + 2 + 3 + 4 +   1 + 2 + 3 + 4 +

G|-----------------|-----------------|-----------------|-----------------|
D|-----------------|-----------------|-----------------|-----------------|
A|-7-7-7-7-7-7-7-7-|-7-7-7-7-7-7-7-7-|-5-5-5-5-5-5-5-5-|-5-5-5-5-5-5-5-5-|
E|-----------------|-----------------|-----------------|-----------------|
   1 + 2 + 3 + 4 +   1 + 2 + 3 + 4 +   1 + 2 + 3 + 4 +   1 + 2 + 3 + 4 +

G|-----------------|-----------------|-----------------|-----------------||
D|-----------------|-----------------|-----------------|-----------------||
A|-------------5-5-|-5-0-0-0-0-0-0-0-|-----------------|-------------5---||
E|-3-3-3-3-3-3-----|-----------------|-3-3-3-5-5-5-0-0-|-0-0-0-0-5-7---7-||
   1 + 2 + 3 + 4 +   1 + 2 + 3 + 4 +   1 + 2 + 3 + 4 +   1 + 2 + 3 + 4 +

INTERLUDE: (9/4)
 
G|-------------------------------------|-------------------------------------|
D|-------------------------------------|-------------------------------------|
A|-7\\\--------------------------------|-------------------------------------|
E|-0---0-------------------------------|-------------------------------3^----|
   1 + 2 + 3 + 4 + 5 + 6 + 7 + 8 + 9 +   1 + 2 + 3 + 4 + 5 + 6 + 7 + 8 + 9 +

G|-------------------------------------|-------------------------------------|
D|-------------------------------------|-------------------------------------|
A|-------------------------------------|-------------------------------------|
E|-0-----------------------------------|-------------------------------------|
   1 + 2 + 3 + 4 + 5 + 6 + 7 + 8 + 9 +   1 + 2 + 3 + 4 + 5 + 6 + 7 + 8 + 9 +

VERSE: (9/4)
 
G|-------------------------------------|-------------------------------------|
D|-------------------------------------|-------------------------------------|
A|-------------------5-5-------0-4-5-4-|-------------------5-5-------0-4-5-4-|
E|-0-0-2-3-2-0-3-3-2-----2-3-2---------|-0-0-2-3-2-0-3-3-2-----2-3-2---------|
   1 + 2 + 3 + 4 + 5 + 6 + 7 + 8 + 9 +   1 + 2 + 3 + 4 + 5 + 6 + 7 + 8 + 9 +

G|-------------------------------------|-------------------------------------||
D|-------------------------------------|-------------------------------------||
A|-------------------5-5-------0-4-5-4-|-------------------5-5-------0-4-5-4-||
E|-0-0-2-3-2-0-3-3-2-----2-3-2---------|-0-0-2-3-2-0-3-3-2-----2-3-2---------||
   1 + 2 + 3 + 4 + 5 + 6 + 7 + 8 + 9 +   1 + 2 + 3 + 4 + 5 + 6 + 7 + 8 + 9 +
 
G|-------------------------------------|-------------------------------------|
D|-2-2---------------------------------|-2-2---------------------------------|
A|-------------------5-5-------0-4-5-4-|-------------------5-5-------0-4-5-4-|
E|-----2-3-2-0-3-3-2-----2-3-2---------|-----2-3-2-0-3-3-2-----2-3-2---------|
   1 + 2 + 3 + 4 + 5 + 6 + 7 + 8 + 9 +   1 + 2 + 3 + 4 + 5 + 6 + 7 + 8 + 9 +

G|-------------------------------------|-------------------------------------||
D|-2-2---------------------------------|-2-2---------------------------------||
A|-------------------5-5-------0-4-5-4-|-------------------5-5-------0-4-5-4-||
E|-----2-3-2-0-3-3-2-----2-3-2---------|-----2-3-2-0-3-3-2-----2-3-2---------||
   1 + 2 + 3 + 4 + 5 + 6 + 7 + 8 + 9 +   1 + 2 + 3 + 4 + 5 + 6 + 7 + 8 + 9 +

PRE-CHORUS:

G|-----------------|-----------------|-----------------|-----------------||
D|-----------------|-----------------|-----------------|-----------------||
A|-----------------|-----------------|-----------------|-----------------||
E|-3-3-3-3-3-3-3-3-|-3-3-3-3-3-3-3-3-|-2-2-2-2-2-2-2-2-|-1-1-1-1-1-1-1-1-||
   1 + 2 + 3 + 4 +   1 + 2 + 3 + 4 +   1 + 2 + 3 + 4 +   1 + 2 + 3 + 4 +

CHORUS:
    
G|-----------------|-----------------|-----------------|-----------------|
D|-----------------|-----------------|-----------------|-----------------|
A|-7-7-7-7-7-7-7-7-|-7-7-7-7-7-7-7-7-|-5-5-5-5-5-5-5-5-|-5-5-5-5-5-5-5-5-|
E|-----------------|-----------------|-----------------|-----------------|
   1 + 2 + 3 + 4 +   1 + 2 + 3 + 4 +   1 + 2 + 3 + 4 +   1 + 2 + 3 + 4 +

G|-----------------|-----------------|-----------------|-----------------|
D|-----------------|-----------------|-----------------|-----------------|
A|-------------5-5-|-5-0-0-0-0-0-0-0-|-----------------|-------------5---|
E|-3-3-3-3-3-3-----|-----------------|-3-3-3-5-5-5-0-0-|-0-0-0-0-5-7---7-|
   1 + 2 + 3 + 4 +   1 + 2 + 3 + 4 +   1 + 2 + 3 + 4 +   1 + 2 + 3 + 4 +

G|-----------------|-----------------|-----------------|-----------------|
D|-----------------|-----------------|-----------------|-----------------|
A|-7-7-7-7-7-7-7-7-|-7-7-7-7-7-7-7-7-|-5-5-5-5-5-5-5-5-|-5-5-5-5-5-5-5-5-|
E|-----------------|-----------------|-----------------|-----------------|
   1 + 2 + 3 + 4 +   1 + 2 + 3 + 4 +   1 + 2 + 3 + 4 +   1 + 2 + 3 + 4 +

G|-----------------|-----------------|-----------------|-----------------||
D|-----------------|-----------------|-----------------|-----------------||
A|-------------5-5-|-5-0-0-0-0-0-0-0-|-----------------|-------------5---||
E|-3-3-3-3-3-3-----|-----------------|-3-3-3-5-5-5-0-0-|-0-0-0-0-5-7---7-||
   1 + 2 + 3 + 4 +   1 + 2 + 3 + 4 +   1 + 2 + 3 + 4 +   1 + 2 + 3 + 4 +

OUTRO/CHORUS:
    
G|-----------------|-----------------|-----------------|-----------------|
D|-----------------|-----------------|-----------------|-----------------|
A|-----------------|-----------------|-----------------|-----------------|
E|-0-0-0-0-0-0-0-0-|-0-0-0-0-2-2-2-2-|-3-3-3-3-3-3-3-3-|-3-3-3-3-3-3-3-3-|
   1 + 2 + 3 + 4 +   1 + 2 + 3 + 4 +   1 + 2 + 3 + 4 +   1 + 2 + 3 + 4 +

G|-----------------|-----------------|-----------------|-----------------|
D|-----------------|-----------------|-----------------|---5-4-----------|
A|-2-2-2-0-0-0-2-2-|-2-0-0-0-0-0-0-0-|-----------------|-------7-5-7-5-7-|
E|-----------------|-----------------|-3-3-3-2-2-2-0-0-|-0---------------|
   1 + 2 + 3 + 4 +   1 + 2 + 3 + 4 +   1 + 2 + 3 + 4 +   1 + 2 + 3 + 4 +

G|-----------------|-----------------|-----------------|-----------------|
D|-----------------|-----------------|-----------------|-----------------|
A|-----------------|-----------------|-----------------|-----------------|
E|-0-0-0-0-0-0-0-0-|-0-0-0-0-2-2-2-2-|-3-3-3-3-3-3-3-3-|-3-3-3-3-3-3-3-3-|
   1 + 2 + 3 + 4 +   1 + 2 + 3 + 4 +   1 + 2 + 3 + 4 +   1 + 2 + 3 + 4 +

G|-----------------|-----------------|-----------------|-----------------||
D|-----------------|-----------------|-5-4---5-4-5-----|-----------------||
A|-----------------|---5-5-5-5-5-5-5-|-----5-----------|-----------------||
E|-0-0-0-2-2-2-3-3-|-3---------------|-------------0~~~|~~---------------||
   1 + 2 + 3 + 4 +   1 + 2 + 3 + 4 +   1 + 2 + 3 + 4 +   1 + 2 + 3 + 4 +
Добавлено: 10.07.2015
Другие материалы по этой песне:
  • Аккорды и текст

Страница создана 10.07.2015
http://primanota.ru/hot-water-music/boy-youre-gonna-hurt-someone-chords.htm
Привет, Гость.
Предлагаем пройти революционный курс по гитаре.
Подарок от PrimaNota.Ru, забирай!