PrimaNota.ru - самый крупный в мире бесплатный архив песенных текстов, аккордов, табулатур и нот


Hot Water Music - All Heads Down - текст песни, бас-таба, видео

Регистрация Запомнить меня
Войти через:  Facebook Google Twitter Vk Yandex Mail.ru

Hot Water Music - All Heads Down - текст песни, бас-таба, видео

Печатать
Просмотров: 124
Уроки эстрадного вокала в Санкт-Петербурге
Авторы музыки: Jason Black, George Rebelo, Chuck Ragan, Chris Wollard
Авторы текста: Jason Black, George Rebelo, Chuck Ragan, Chris Wollard
Band: Hot Water Music
Song: All Heads Down
Album: The New What Next
Bassist: Jason Black

INTRO

G|----------------------------------|----------------------------------|
D|----------------------------------|----------------------------------|
A|-4-4---------------------4-4------|-4-4---------------------4-4------|
E|-----------------------------4-4--|-----------------------------4-4--|
   1 + + + 2 + + + 3 + + + 4 + + +    1 + + + 2 + + + 3 + + + 4 + + +

G|----------------------------------|----------------------------------|
D|----------------------------------|-----------------2---2------------|
A|-4-4---------------------4-4------|-4-4---------2h4---------4-2------|
E|-----------------------------4-4--|-----------------------------4----|
   1 + + + 2 + + + 3 + + + 4 + + +    1 + + + 2 + + + 3 + + + 4 + + +

G|----------------------------------|----------------------------------|
D|----------------------------------|----------------------------------|
A|----------------------------------|----------------------------------|
E|-5-5---------------------5-5-4-4--|-5-5-----------------4-4-5-5-4-4--|
   1 + + + 2 + + + 3 + + + 4 + + +    1 + + + 2 + + + 3 + + + 4 + + +

G|----------------------------------|----------------------------------||
D|----------------------------------|----------------------------------||
A|-4-4---------------------4-4------|-4-4---------4///16------9\\\\\---||
E|-----------------------------4-4--|----------------------------------||
   1 + + + 2 + + + 3 + + + 4 + + +    1 + + + 2 + + + 3 + + + 4 + + +

VERSE

G|----------------------------------|----------------------------------|
D|----------------------------------|----------------------------------|
A|-4-4---------------------4-4------|-4-4---------------------4-4------|
E|-----------------------------4-4--|-----------------------------4-4--|
   1 + + + 2 + + + 3 + + + 4 + + +    1 + + + 2 + + + 3 + + + 4 + + +

G|----------------------------------|----------------------------------|
D|----------------------------------|-----------------2---2------------|
A|-4-4---------------------4-4------|-4-4---------2h4---------4-2------|
E|-----------------------------4-4--|-----------------------------4----|
   1 + + + 2 + + + 3 + + + 4 + + +    1 + + + 2 + + + 3 + + + 4 + + +

G|----------------------------------|----------------------------------|
D|----------------------------------|----------------------------------|
A|----------------------------------|----------------------------------|
E|-5-5---------------------5-5-4-4--|-5-5-----------------4-4-5-5-4-4--|
   1 + + + 2 + + + 3 + + + 4 + + +    1 + + + 2 + + + 3 + + + 4 + + +

G|----------------------------------|----------------------------------||
D|----------------------------------|----------------------------------||
A|-4-4---------------------4-4------|-4-4---------4///16------9\\\\\---||
E|-----------------------------4-4--|----------------------------------||
   1 + + + 2 + + + 3 + + + 4 + + +    1 + + + 2 + + + 3 + + + 4 + + +

PRE-CHORUS

G|----------------------------------|----------------------------------|
D|----------------------------------|----------------------------------|
A|----------------------------------|----------------------------------|
E|-2-2-2-2-2-------2-2-2-2-2--------|-2-2-2-2-2-------2-2-2-2-2---4----|
   1 + + + 2 + + + 3 + + + 4 + + +    1 + + + 2 + + + 3 + + + 4 + + +

G|----------------------------------|----------------------------------||
D|----------------------------------|-----6h7-6---7-6------------------||
A|----------------------------------|-6h7-------7-----7-6-7-6-0-6-7-6--||
E|-5-5-5-5-5-------5-5-5-5-5--------|----------------------------------||
   1 + + + 2 + + + 3 + + + 4 + + +    1 + + + 2 + + + 3 + + + 4 + + +

VERSE

G|----------------------------------|----------------------------------|
D|----------------------------------|----------------------------------|
A|-4-4---------------------4-4------|-4-4---------------------4-4------|
E|-----------------------------4-4--|-----------------------------4-4--|
   1 + + + 2 + + + 3 + + + 4 + + +    1 + + + 2 + + + 3 + + + 4 + + +

G|----------------------------------|----------------------------------|
D|----------------------------------|-----------------2---2------------|
A|-4-4---------------------4-4------|-4-4---------2h4---------4-2------|
E|-----------------------------4-4--|-----------------------------4----|
   1 + + + 2 + + + 3 + + + 4 + + +    1 + + + 2 + + + 3 + + + 4 + + +

G|----------------------------------|----------------------------------|
D|----------------------------------|----------------------------------|
A|----------------------------------|----------------------------------|
E|-5-5---------------------5-5-4-4--|-5-5-----------------4-4-5-5-4-4--|
   1 + + + 2 + + + 3 + + + 4 + + +    1 + + + 2 + + + 3 + + + 4 + + +

G|----------------------------------|----------------------------------||
D|----------------------------------|----------------------------------||
A|-4-4---------------------4-4------|-4-4---------4///16------9\\\\\---||
E|-----------------------------4-4--|----------------------------------||
   1 + + + 2 + + + 3 + + + 4 + + +    1 + + + 2 + + + 3 + + + 4 + + +

PRE-CHORUS

G|----------------------------------|----------------------------------|
D|----------------------------------|----------------------------------|
A|----------------------------------|----------------------------------|
E|-2-2-2-2-2-------2-2-2-2-2--------|-2-2-2-2-2-------2-2-2-2-2---4----|
   1 + + + 2 + + + 3 + + + 4 + + +    1 + + + 2 + + + 3 + + + 4 + + +

G|----------------------------------|----------------------------------|
D|----------------------------------|---------------------6h7-6--------|
A|----------------------------------|-----------------6h7-------7-6----|
E|-5-5-5-5-5-------5-5-5-5-5--------|-5-5-5-5-5---------------------7--|
   1 + + + 2 + + + 3 + + + 4 + + +    1 + + + 2 + + + 3 + + + 4 + + +

G|----------------------------------|----------------------------------|
D|----------------------------------|----------------------------------|
A|----------------------------------|----------------------------------|
E|-2-2-2-2-2-------2-2-2-2-2--------|-2-2-2-2-2-------2-2-2-2-2---4----|
   1 + + + 2 + + + 3 + + + 4 + + +    1 + + + 2 + + + 3 + + + 4 + + +

G|----------------------------------|----------------------------------||
D|----------------------------------|-------------------------6h7-6----||
A|----------------------------------|---------------------6h7-------7--||
E|-5-5-5-5-5-------5-5-5-5-5-----5--|-5---5-----5-5---5----------------||
   1 + + + 2 + + + 3 + + + 4 + + +    1 + + + 2 + + + 3 + + + 4 + + +

CHORUS

G|----------------------------------|----------------------------------|
D|----------------------------------|----------------------------------|
A|-4---4---4---4---7---6------------|----------------------------------|
E|-------------------------5---4----|-2---2---2---2---2---0---2---4----|
   1 + + + 2 + + + 3 + + + 4 + + +    1 + + + 2 + + + 3 + + + 4 + + +

G|----------------------------------|----------------------------------|
D|----------------------------------|-----------------6h7-6------------|
A|----------------------------------|-----6h7-6---------------7---6----|
E|-5---5---5---5---5---5---5---5----|-5-----------5--------------------|
   1 + + + 2 + + + 3 + + + 4 + + +    1 + + + 2 + + + 3 + + + 4 + + +

G|----------------------------------|----------------------------------|
D|----------------------------------|----------------------------------|
A|-4---4---4---4---7---6------------|----------------------------------|
E|-------------------------5---4----|-2---2---2---2---2---0---2---4----|
   1 + + + 2 + + + 3 + + + 4 + + +    1 + + + 2 + + + 3 + + + 4 + + +

G|----------------------------------|----------------------------------||
D|----------------------------------|---------6h7-6---7-6-------6------||
A|----------------------------------|-----6h7-------7-----7-6-7---7-6--||
E|-5---5---5---5---5---5---5---5----|-5--------------------------------||
   1 + + + 2 + + + 3 + + + 4 + + +    1 + + + 2 + + + 3 + + + 4 + + +

INTERLUDE

G|----------------------------------|----------------------------------|
D|----------------------------------|----------------------------------|
A|-4-4---------------------4-4------|-4-4---------------------4-4------|
E|-----------------------------4-4--|-----------------------------4-4--|
   1 + + + 2 + + + 3 + + + 4 + + +    1 + + + 2 + + + 3 + + + 4 + + +

G|----------------------------------|-------------------------------------------------||
D|----------------------------------|-------------------------------------------------||
A|-4-4---------------------4-4------|-4-4---------7-----------------------------------||
E|-----------------------------4-4--|-----------------7-----7-----7-------------------||
   1 + + + 2 + + + 3 + + + 4 + + +    1 + + + 2 + + + 3 + + + 4 + + + 5 + + + 6 + + +

VERSE

G|----------------------------------|----------------------------------|
D|----------------------------------|----------------------------------|
A|-4-4---------------------4-4------|-4-4---------------------4-4------|
E|-----------------------------4-4--|-----------------------------4-4--|
   1 + + + 2 + + + 3 + + + 4 + + +    1 + + + 2 + + + 3 + + + 4 + + +

G|----------------------------------|----------------------------------|
D|----------------------------------|-----------------2---2------------|
A|-4-4---------------------4-4------|-4-4---------2h4---------4-2------|
E|-----------------------------4-4--|-----------------------------4----|
   1 + + + 2 + + + 3 + + + 4 + + +    1 + + + 2 + + + 3 + + + 4 + + +

G|----------------------------------|----------------------------------|
D|----------------------------------|----------------------------------|
A|----------------------------------|----------------------------------|
E|-5-5---------------------5-5-4-4--|-5-5-----------------4-4-5-5-4-4--|
   1 + + + 2 + + + 3 + + + 4 + + +    1 + + + 2 + + + 3 + + + 4 + + +

G|----------------------------------|----------------------------------||
D|----------------------------------|----------------------------------||
A|-4-4---------------------4-4------|-4-4---------4///16------9\\\\\---||
E|-----------------------------4-4--|----------------------------------||
   1 + + + 2 + + + 3 + + + 4 + + +    1 + + + 2 + + + 3 + + + 4 + + +

PRE-CHORUS

G|----------------------------------|----------------------------------|
D|----------------------------------|----------------------------------|
A|----------------------------------|----------------------------------|
E|-2-2-2-2-2-------2-2-2-2-2--------|-2-2-2-2-2-------2-2-2-2-2---4----|
   1 + + + 2 + + + 3 + + + 4 + + +    1 + + + 2 + + + 3 + + + 4 + + +

G|----------------------------------|----------------------------------|
D|----------------------------------|---------------------6h7-6--------|
A|----------------------------------|-----------------6h7-------7-6----|
E|-5-5-5-5-5-------5-5-5-5-5--------|-5-5-5-5-5---------------------7--|
   1 + + + 2 + + + 3 + + + 4 + + +    1 + + + 2 + + + 3 + + + 4 + + +

G|----------------------------------|----------------------------------|
D|----------------------------------|----------------------------------|
A|----------------------------------|----------------------------------|
E|-2-2-2-2-2-------2-2-2-2-2--------|-2-2-2-2-2-------2-2-2-2-2---4----|
   1 + + + 2 + + + 3 + + + 4 + + +    1 + + + 2 + + + 3 + + + 4 + + +

G|----------------------------------|----------------------------------||
D|----------------------------------|----------------------------------||
A|----------------------------------|-------------------------6h7p6----||
E|-5-5-5-5-5-------5-5-5-5-5-----5--|-5---5-----5-5---5-------------7--||
   1 + + + 2 + + + 3 + + + 4 + + +    1 + + + 2 + + + 3 + + + 4 + + +

CHORUS

G|----------------------------------|----------------------------------|
D|----------------------------------|----------------------------------|
A|-4---4---4---4---7---6------------|----------------------------------|
E|-------------------------5---4----|-2---2---2---2---2---0---2---4----|
   1 + + + 2 + + + 3 + + + 4 + + +    1 + + + 2 + + + 3 + + + 4 + + +

G|----------------------------------|----------------------------------|
D|----------------------------------|-----------------6h7-6------------|
A|----------------------------------|-----6h7-6---------------7---6----|
E|-5---5---5---5---5---5---5---5----|-5-----------5--------------------|
   1 + + + 2 + + + 3 + + + 4 + + +    1 + + + 2 + + + 3 + + + 4 + + +

G|----------------------------------|----------------------------------|
D|----------------------------------|----------------------------------|
A|-4---4---4---4---7---6------------|----------------------------------|
E|-------------------------5---4----|-2---2---2---2---2---0---2---4----|
   1 + + + 2 + + + 3 + + + 4 + + +    1 + + + 2 + + + 3 + + + 4 + + +

G|----------------------------------|----------------------------------|
D|----------------------------------|-----6h7-6---7-6---6--------------|
A|----------------------------------|-6h7-------7-----7-----7-6-7-6----|
E|-5---5---5---5---5---5---5---5----|-------------------------------7--|
   1 + + + 2 + + + 3 + + + 4 + + +    1 + + + 2 + + + 3 + + + 4 + + +

G|----------------------------------|----------------------------------|
D|----------------------------------|----------------------------------|
A|-4---4---4---4---7---6------------|----------------------------------|
E|-------------------------5---4----|-2---2---2---2---2---0---2---4----|
   1 + + + 2 + + + 3 + + + 4 + + +    1 + + + 2 + + + 3 + + + 4 + + +

G|----------------------------------|----------------------------------|
D|----------------------------------|-----------------6h7-6------------|
A|----------------------------------|-----6h7-6---------------7---6----|
E|-5---5---5---5---5---5---5---5----|-5-----------5--------------------|
   1 + + + 2 + + + 3 + + + 4 + + +    1 + + + 2 + + + 3 + + + 4 + + +

G|----------------------------------|----------------------------------|
D|----------------------------------|----------------------------------|
A|-4---4---4---4---7---6------------|----------------------------------|
E|-------------------------5---4----|-2---2---2---2---2---0---2---4----|
   1 + + + 2 + + + 3 + + + 4 + + +    1 + + + 2 + + + 3 + + + 4 + + +

G|----------------------------------|----------------------------------||
D|----------------------------------|---------6h7-6---7-6-------6------||
A|----------------------------------|-----6h7-------7-----7-6-7---7-6--||
E|-5---5---5---5---5---5---5---5----|-5--------------------------------||
   1 + + + 2 + + + 3 + + + 4 + + +    1 + + + 2 + + + 3 + + + 4 + + +

OUTRO

G|----------------------------------|----------------------------------|
D|----------------------------------|----------------------------------|
A|-4-4-4-4-4-------4-4-4-4-4--------|-4-4-4-4-4-------4-4-4-4----------|
E|----------------------------------|-------------------------4-4-5-5--|
   1 + + + 2 + + + 3 + + + 4 + + +    1 + + + 2 + + + 3 + + + 4 + + +

G|----------------------------------|----------------------------------|
D|----------------------------------|----------------------------------|
A|-4-4-4-4-4-------4-4-4-4-4--------|-4-4-4-4-4-------4-4-4-4----------|
E|----------------------------------|-------------------------4-4-5-5--|
   1 + + + 2 + + + 3 + + + 4 + + +    1 + + + 2 + + + 3 + + + 4 + + +

G|----------------------------------|----------------------------------|
D|----------------------------------|----------------------------------|
A|-4-4-4-4-4-------4-4-4-4-4--------|-4-4-4-4-4-------4-4-4-4----------|
E|----------------------------------|-------------------------4-4-5-5--|
   1 + + + 2 + + + 3 + + + 4 + + +    1 + + + 2 + + + 3 + + + 4 + + +

G|----------------------------------|----------------------------------|
D|----------------------------------|----------------------------------|
A|-4-4-4-4-4-------4-4-4-4-4--------|-4-4-4-4-4-------4-4-4-4----------|
E|----------------------------------|-------------------------4-4-5-5--|
   1 + + + 2 + + + 3 + + + 4 + + +    1 + + + 2 + + + 3 + + + 4 + + +

G|-----------------||
D|-----------------||
A|-4~~(4)\\\-------||
E|-----------------||
   1 + 2 + 3 + 4 + 
Добавлено: 16.05.2012
Другие материалы по этой песне:
  • Аккорды и текст

Страница создана 16.05.2012
http://primanota.ru/hot-water-music/all-heads-down-chords.htm
Привет, Гость.
Предлагаем пройти революционный курс по гитаре.
Подарок от PrimaNota.Ru, забирай!