PrimaNota.ru - самый крупный в мире бесплатный архив песенных текстов, аккордов, табулатур и нот


Hot Leg - Prima Donna - таба, видео

Регистрация Запомнить меня
Войти через:  Facebook Google Twitter Vk Yandex Mail.ru

Hot Leg - Prima Donna - таба, видео

Печатать
Просмотров: 130
Уроки эстрадного вокала в Санкт-Петербурге
-------------------------------------------------------------------------------
                                                    Prima Donna - Hot Leg
-------------------------------------------------------------------------------
Tabbed by: Sam Mézec
Email: smezec@hotmail.com  http://www.myspace.com/salemslotjsy


Check out Hot Legs website at www.myspace.com/teamhotleg


Tuning: EADGBe Standard        (in half step down when they play it live)

Intro

e|---------------------|----------------|--------------3-3--|-------0--------|
B|---------------------|----------------|--------------3-3--|-------0--------|
G|-------7\5---7-5-----|--5p4---4--2----|--------------0-0--|--1-1--1--------|
D|-------7\5---7-5-----|--5-----5--2----|--------0h2--------|--2-2--2--------|
A|-0--0------0-------0-|------0-------0-|--2-3-3------------|--2-2-----------|
E|---------------------|----------------|------------3------|--0-0-----------|

e|---------------------|----------------|--------------2---2-|---------------|
B|---------------------|----------------|--------------3---3-|---------------|
G|-------7\5---7-5-----|--5p4---4--2----|--------------2---2-|------2--------|
D|-------7\5---7-5-----|--5-----5--2----|--------0h2-0---0---|------2--------|
A|-0--0------0-------0-|------0-------0-|--2-3-3-------------|------0--------|
E|---------------------|----------------|--------------------|--3b-----------|


Verse

e|---------------|----------------|----------------|-------------------------|
B|---------------|----------------|-3--------------|-------------------------|
G|--2------------|--(2)-----------|-2--2-----------|------2-2------2--2-2----|
D|--2------------|--(2)-----------|-0--2-----------|------2-2------2--2-2----|
A|--0------------|--(0)-----------|----0-----------|------0-0------0--0-0----|
E|---------------|----------------|----------------|--3b-------3b------------|

e|---------------|----------------|----------------|-------------------------|
B|---------------|----------------|-3--------------|-------------------------|
G|--2------------|--(2)-----------|-2--2-----------|------2-2------2--2-2----|
D|--2------------|--(2)-----------|-0--2-----------|------2-2------2--2-2----|
A|--0------------|--(0)-----------|----0-----------|------0-0------0--0-0----|
E|---------------|----------------|----------------|--3b-------3b------------|

Pre-Chorus

e|--2------------|--3-------------|----------------|-------------------------|
B|--3------------|--2-------------|----------------|-------------------------|
G|--2------------|--2-------------|-2--2-----------|-----2--2--2----2----2---|
D|--0------------|--0-------------|-2--2-----------|-----2--2--2----2----2---|
A|---------------|----------------|-0--0-----------|-----0--0--0----0----0---|
E|---------------|----------------|----------------|--3b---------3b---3b-----|

e|--2------------|--3-------------|----0-----------|-------------------------|
B|--3------------|--2-------------|----0--0--0--0--|--3---3---3-3------------|
G|--2------------|--2-------------|-1--1--1--1--1--|--2---2---2-2---2--------|
D|--0------------|--0-------------|-2--2--2--2--2--|--0---0---0-0---2--------|
A|---------------|----------------|-2-----2--2--2--|----------------0--------|
E|---------------|----------------|-0-----0--0--0--|-------------------------|

Chorus

e|---------------------|----------------|--------------3-3--|-------0--------|
B|---------------------|----------------|--------------3-3--|-------0--------|
G|-------7\5---7-5-----|--5p4---4--2----|--------------0-0--|--1-1--1--------|
D|-------7\5---7-5-----|--5-----5--2----|--------0h2--------|--2-2--2--------|
A|-0--0------0-------0-|------0-------0-|--2-3-3------------|--2-2-----------|
E|---------------------|----------------|------------3------|--0-0-----------|

e|---------------------|----------------|--------------2---2-|---------------|
B|---------------------|----------------|--------------3---3-|---------------|
G|-------7\5---7-5-----|--5p4---4--2----|--------------2---2-|------2--------|
D|-------7\5---7-5-----|--5-----5--2----|--------0h2-0---0---|------2--------|
A|-0--0------0-------0-|------0-------0-|--2-3-3-------------|------0--------|
E|---------------------|----------------|--------------------|--3b-----------|

Verse

e|---------------|----------------|----------------|-------------------------|
B|---------------|----------------|-3--------------|-------------------------|
G|--2------------|--(2)-----------|-2--2-----------|------2-2------2--2-2----|
D|--2------------|--(2)-----------|-0--2-----------|------2-2------2--2-2----|
A|--0------------|--(0)-----------|----0-----------|------0-0------0--0-0----|
E|---------------|----------------|----------------|--3b-------3b------------|

e|---------------|----------------|----------------|-------------------------|
B|---------------|----------------|-3--------------|-------------------------|
G|--2------------|--(2)-----------|-2--2-----------|------2-2------2--2-2----|
D|--2------------|--(2)-----------|-0--2-----------|------2-2------2--2-2----|
A|--0------------|--(0)-----------|----0-----------|------0-0------0--0-0----|
E|---------------|----------------|----------------|--3b-------3b------------|

Pre-Chorus

e|--2------------|--3-------------|----------------|-------------------------|
B|--3------------|--2-------------|----------------|-------------------------|
G|--2------------|--2-------------|-2--2-----------|-----2--2--2----2----2---|
D|--0------------|--0-------------|-2--2-----------|-----2--2--2----2----2---|
A|---------------|----------------|-0--0-----------|-----0--0--0----0----0---|
E|---------------|----------------|----------------|--3b---------3b---3b-----|

e|--2------------|--3-------------|----0-----------|-------------------------|
B|--3------------|--2-------------|----0--0--0--0--|--3---3---3-3------------|
G|--2------------|--2-------------|-1--1--1--1--1--|--2---2---2-2---2--------|
D|--0------------|--0-------------|-2--2--2--2--2--|--0---0---0-0---2--------|
A|---------------|----------------|-2-----2--2--2--|----------------0--------|
E|---------------|----------------|-0-----0--0--0--|-------------------------|

Chorus

e|---------------------|----------------|--------------3-3--|-------0--------|
B|---------------------|----------------|--------------3-3--|-------0--------|
G|-------7\5---7-5-----|--5p4---4--2----|--------------0-0--|--1-1--1--------|
D|-------7\5---7-5-----|--5-----5--2----|--------0h2--------|--2-2--2--------|
A|-0--0------0-------0-|------0-------0-|--2-3-3------------|--2-2-----------|
E|---------------------|----------------|------------3------|--0-0-----------|

e|---------------------|----------------|--------------2---2-|---------------|
B|---------------------|----------------|--------------3---3-|---------------|
G|-------7\5---7-5-----|--5p4---4--2----|--------------2---2-|------2--------|
D|-------7\5---7-5-----|--5-----5--2----|--------0h2-0---0---|------2--------|
A|-0--0------0-------0-|------0-------0-|--2-3-3-------------|------0--------|
E|---------------------|----------------|--------------------|--3b-----------|

Solo

The first bit just centers on a jam in A, then leads into the pre-chorus


Chorus/outro

e|---------------------|----------------|--------------3-3--|-------0--------|
B|---------------------|----------------|--------------3-3--|-------0--------|
G|-------7\5---7-5-----|--5p4---4--2----|--------------0-0--|--1-1--1--------|
D|-------7\5---7-5-----|--5-----5--2----|--------0h2--------|--2-2--2--------|
A|-0--0------0-------0-|------0-------0-|--2-3-3------------|--2-2-----------|
E|---------------------|----------------|------------3------|--0-0-----------|

e|---------------------|----------------|--------------3-3--|-------0--------|
B|---------------------|----------------|--------------3-3--|-------0--------|
G|-------7\5---7-5-----|--5p4---4--2----|--------------0-0--|--1-1--1--------|
D|-------7\5---7-5-----|--5-----5--2----|--------0h2--------|--2-2--2--------|
A|-0--0------0-------0-|------0-------0-|--2-3-3------------|--2-2-----------|
E|---------------------|----------------|------------3------|--0-0-----------|



| /  slide up
| \  slide down
| h  hammer-on
| p  pull-off
| ~  vibrato
| +  harmonic
| x  Mute note
===============================================================================
Добавлено: 22.07.2012
Другие материалы по этой песне:
  • Аккорды и текст

Страница создана 22.07.2012
http://primanota.ru/hot-leg/prima-donna-chords.htm
Привет, Гость.
Предлагаем пройти революционный курс по гитаре.
Подарок от PrimaNota.Ru, забирай!