PrimaNota.ru - самый крупный в мире бесплатный архив песенных текстов, аккордов, табулатур и нот


Hot Leg - Ive Met Jesus - таба, видео

Регистрация Запомнить меня
Войти через:  Facebook Google Twitter Vk Yandex Mail.ru

Hot Leg - Ive Met Jesus - таба, видео

Печатать
Просмотров: 93
-------------------------------------------------------------------------------
                                   I've Met Jesus - Hot Leg
-------------------------------------------------------------------------------
Tabbed by: Sam Mézec
Email: smezec@hotmail.com

Http://www.myspace.com/teamhotleg

I very much recomend buying this single, its fantastic and the B-sides are awesome!



Tuning: EADGBE standard


Intro

e|-------------|----------|-------------3------|---------------------|
B|-------------|--3-------|-------------3--3---|---------------------|
G|---------2---|--2-------|------2--2---0--2---|---2-----------------|
D|--2------2---|--0-------|------2--2---0--0---|---2-----------------|
A|--2------0---|----------|------0--0----------|---0-----------------|
E|--0----------|----------|--3b----------------|---------------------|


e|-------------|----------|-------------3------|---------------------|
B|-------------|--3-------|-------------3--3---|---------------------|
G|---------2---|--2-------|------2--2---0--2---|---2-----------------|
D|--2------2---|--0-------|------2--2---0--0---|---2--2-2-2-2-2-2----|
A|--2------0---|----------|------0--0----------|---0--0-0-0-0-0-0----|
E|--0----------|----------|--3b----------------|---------------------|


e|-------------|--------------------|-------------3------|-------------------|
B|--0----------|--3---3-------------|-------------3--3---|-------------------|
G|--1-------2--|--2---2-------------|------2--2---0--2---|--2--2-----2--0----|
D|--2-2--2--2--|--0---0----------2~-|------2--2---0--0---|--2--2-----2--0----|
A|--2-2--2--4--|---------4p0--------|------0--0----------|--0--0-----0--2----|
E|--0-0--0-----|-------------3p0----|--3b----------------|-------3p0----3----|


e|-------------|--------------------|----------------|---------------------|
B|--0----------|--3---3-------------|----------------|---------------------|
G|--1-------2--|--2---2-------------|--4-4-4-4--4-4--|--4-4---0---0---0----|
D|--2-2--2--2--|--0---0----------2~-|--4-4-4-4--4-4--|--4-4---0---0---0----|
A|--2-2--2--4--|---------4p0--------|--2-2-2-2--2-2--|--2-2---2---2---2----|
E|--0-0--0-----|-------------3p0----|----------------|--------3---3---3----|


Verse

e|-------------------|--------------------|-------------------|--------------------|
B|-------------------|-------------3-3----|-------------------|-------------3-3----|
G|-------------------|-------------2-2--2-|-------------------|-------------2-2--2-|
D|-------------------|------2b-0---0-0--2-|-------------------|------2b-0---0-0--2-|
A|-2--0--4--0--5-0-4-|-----------2------0-|-2--0--4--0--5-0-4-|------------------0-|
E|-------------------|-3b-0---------------|-------------------|-3b-0------3--------|

e|-------------------|--------------------|-------------------|--------------------|
B|-------------------|-------------3-3----|-------------------|-------------3-3----|
G|-------------------|-------------2-2--2-|-------------------|-------------2-2--2-|
D|-------------------|------2b-0---0-0--2-|-------------------|------2b-0---0-0--2-|
A|-2--0--4--0--5-0-4-|-----------2------0-|-2--0--4--0--5-0-4-|------------------0-|
E|-------------------|-3b-0---------------|-------------------|-3b-0------3--------|


e|-------------------|--------------------|-------------------|--------------------|
B|-------------------|-------------3-3--3-|-------------------|-------------3-3----|
G|-------------------|------2b-0---0-0--2-|-------------------|-------------2-2--2-|
D|-2--0--4--0--5-0-4-|-----------2-0-0--0-|-------------------|------2b-0---0-0--2-|
A|-------------------|-3b-0--------2-2----|-2--0--4--0--5-0-4-|------------------0-|
E|-------------------|-------------3-3----|-------------------|-3b-0------3--------|

e|--------------|-----------------3--3--|----------------|
B|--------------|-----------------3--3--|----------------|
G|-4-4-4-4--4-4-|-4-4--4-4-4--0-0-0--0--|--0---0--0--0---|
D|-4-4-4-4--4-4-|-4-4--4-4-4--0-0-0--0--|--0---0--0--0---|
A|-2-2-2-2--2-2-|-2-2--2-2-2--2-2-------|--2---2--2--2---|
E|--------------|-------------3-3-------|--3---3--3--3---|


Chorus

e|-------------|--------------------|-------------3------|-------------------|
B|--0----------|--3---3-------------|-------------3--3---|-------------------|
G|--1-------2--|--2---2-------------|------2--2---0--2---|--2--2-----2--0----|
D|--2-2--2--2--|--0---0----------2~-|------2--2---0--0---|--2--2-----2--0----|
A|--2-2--2--4--|---------4p0--------|------0--0----------|--0--0-----0--2----|
E|--0-0--0-----|-------------3p0----|--3b----------------|-------3p0----3----|


e|-------------|--------------------|----------------|---------------------|
B|--0----------|--3---3-------------|----------------|---------------------|
G|--1-------2--|--2---2-------------|--4-4-4-4--4-4--|--4-4---0---0---0----|
D|--2-2--2--2--|--0---0----------2~-|--4-4-4-4--4-4--|--4-4---0---0---0----|
A|--2-2--2--4--|---------4p0--------|--2-2-2-2--2-2--|--2-2---2---2---2----|
E|--0-0--0-----|-------------3p0----|----------------|--------3---3---3----|


Verse

e|-------------------|--------------------|-------------------|--------------------|
B|-------------------|-------------3-3----|-------------------|-------------3-3----|
G|-------------------|-------------2-2--2-|-------------------|-------------2-2--2-|
D|-------------------|------2b-0---0-0--2-|-------------------|------2b-0---0-0--2-|
A|-2--0--4--0--5-0-4-|-----------2------0-|-2--0--4--0--5-0-4-|------------------0-|
E|-------------------|-3b-0---------------|-------------------|-3b-0------3--------|

e|-------------------|--------------------|-------------------|--------------------|
B|-------------------|-------------3-3----|-------------------|-------------3-3----|
G|-------------------|-------------2-2--2-|-------------------|-------------2-2--2-|
D|-------------------|------2b-0---0-0--2-|-------------------|------2b-0---0-0--2-|
A|-2--0--4--0--5-0-4-|-----------2------0-|-2--0--4--0--5-0-4-|------------------0-|
E|-------------------|-3b-0---------------|-------------------|-3b-0------3--------|


e|-------------------|--------------------|-------------------|--------------------|
B|-------------------|-------------3-3--3-|-------------------|-------------3-3----|
G|-------------------|------2b-0---0-0--2-|-------------------|-------------2-2--2-|
D|-2--0--4--0--5-0-4-|-----------2-0-0--0-|-------------------|------2b-0---0-0--2-|
A|-------------------|-3b-0--------2-2----|-2--0--4--0--5-0-4-|------------------0-|
E|-------------------|-------------3-3----|-------------------|-3b-0------3--------|

e|--------------|-----------------3--3--|----------------|
B|--------------|-----------------3--3--|----------------|
G|-4-4-4-4--4-4-|-4-4--4-4-4--0-0-0--0--|--0---0--0--0---|
D|-4-4-4-4--4-4-|-4-4--4-4-4--0-0-0--0--|--0---0--0--0---|
A|-2-2-2-2--2-2-|-2-2--2-2-2--2-2-------|--2---2--2--2---|
E|--------------|-------------3-3-------|--3---3--3--3---|


Chorus

e|-------------|--------------------|-------------3------|-------------------|
B|--0----------|--3---3-------------|-------------3--3---|-------------------|
G|--1-------2--|--2---2-------------|------2--2---0--2---|--2--2-----2--0----|
D|--2-2--2--2--|--0---0----------2~-|------2--2---0--0---|--2--2-----2--0----|
A|--2-2--2--4--|---------4p0--------|------0--0----------|--0--0-----0--2----|
E|--0-0--0-----|-------------3p0----|--3b----------------|-------3p0----3----|


e|-------------|--------------------|----------------|---------------------|
B|--0----------|--3---3-------------|----------------|---------------------|
G|--1-------2--|--2---2-------------|--4-4-4-4--4-4--|--4-4---0---0---0----|
D|--2-2--2--2--|--0---0----------2~-|--4-4-4-4--4-4--|--4-4---0---0---0----|
A|--2-2--2--4--|---------4p0--------|--2-2-2-2--2-2--|--2-2---2---2---2----|
E|--0-0--0-----|-------------3p0----|----------------|--------3---3---3----|


Guitar solo

e|-------------------|--------------------|-------------------|--------------------|
B|-------------------|-------------3-3----|-------------------|-------------3-3----|
G|-------------------|-------------2-2--2-|-------------------|-------------2-2--2-|
D|-------------------|------2b-0---0-0--2-|-------------------|------2b-0---0-0--2-|
A|-2--0--4--0--5-0-4-|-----------2------0-|-2--0--4--0--5-0-4-|------------------0-|
E|-------------------|-3b-0---------------|-------------------|-3b-0------3--------|


e|-------------------|--------------------|-------------------|--------------------|
B|-------------------|-------------3-3--3-|-------------------|-------------3-3----|
G|-------------------|------2b-0---0-0--2-|-------------------|-------------2-2--2-|
D|-2--0--4--0--5-0-4-|-----------2-0-0--0-|-------------------|------2b-0---0-0--2-|
A|-------------------|-3b-0--------2-2----|-2--0--4--0--5-0-4-|------------------0-|
E|-------------------|-------------3-3----|-------------------|-3b-0------3--------|

e|--------------|-----------------3--3--|----------------|
B|--------------|-----------------3--3--|----------------|
G|-4-4-4-4--4-4-|-4-4--4-4-4--0-0-0--0--|--0---0--0--0---|
D|-4-4-4-4--4-4-|-4-4--4-4-4--0-0-0--0--|--0---0--0--0---|
A|-2-2-2-2--2-2-|-2-2--2-2-2--2-2-------|--2---2--2--2---|
E|--------------|-------------3-3-------|--3---3--3--3---|


Verse

e|-------------------|--------------------|-------------------|--------------------|
B|-------------------|-------------3-3----|-------------------|-------------3-3----|
G|-------------------|-------------2-2--2-|-------------------|-------------2-2--2-|
D|-------------------|------2b-0---0-0--2-|-------------------|------2b-0---0-0--2-|
A|-2--0--4--0--5-0-4-|-----------2------0-|-2--0--4--0--5-0-4-|------------------0-|
E|-------------------|-3b-0---------------|-------------------|-3b-0------3--------|


e|-------------------|--------------------|-------------------|--------------------|
B|-------------------|-------------3-3--3-|-------------------|-------------3-3----|
G|-------------------|------2b-0---0-0--2-|-------------------|-------------2-2--2-|
D|-2--0--4--0--5-0-4-|-----------2-0-0--0-|-------------------|------2b-0---0-0--2-|
A|-------------------|-3b-0--------2-2----|-2--0--4--0--5-0-4-|------------------0-|
E|-------------------|-------------3-3----|-------------------|-3b-0------3--------|

e|--------------|-----------------3--3--|----------------|
B|--------------|-----------------3--3--|----------------|
G|-4-4-4-4--4-4-|-4-4--4-4-4--0-0-0--0--|--0-------------|
D|-4-4-4-4--4-4-|-4-4--4-4-4--0-0-0--0--|--0-------------|
A|-2-2-2-2--2-2-|-2-2--2-2-2--2-2-------|--2-------------|
E|--------------|-------------3-3-------|--3-------------|


Chorus

e|-------------|--------------------|-------------3------|-------------------|
B|--0----------|--3---3-------------|-------------3--3---|-------------------|
G|--1-------2--|--2---2-------------|------2--2---0--2---|--2--2-----2--0----|
D|--2-2--2--2--|--0---0----------2~-|------2--2---0--0---|--2--2-----2--0----|
A|--2-2--2--4--|---------4p0--------|------0--0----------|--0--0-----0--2----|
E|--0-0--0-----|-------------3p0----|--3b----------------|-------3p0----3----|


e|-------------|--------------------|----------------|---------------------|
B|--0----------|--3---3-------------|----------------|---------------------|
G|--1-------2--|--2---2-------------|--4-4-4-4--4-4--|--4-4---0---0---0----|
D|--2-2--2--2--|--0---0----------2~-|--4-4-4-4--4-4--|--4-4---0---0---0----|
A|--2-2--2--4--|---------4p0--------|--2-2-2-2--2-2--|--2-2---2---2---2----|
E|--0-0--0-----|-------------3p0----|----------------|--------3---3---3----|


e|-------------|--------------------|-------------3------|-------------------|
B|--0----------|--3---3-------------|-------------3--3---|-------------------|
G|--1-------2--|--2---2-------------|------2--2---0--2---|--2--2-----2--0----|
D|--2-2--2--2--|--0---0----------2~-|------2--2---0--0---|--2--2-----2--0----|
A|--2-2--2--4--|---------4p0--------|------0--0----------|--0--0-----0--2----|
E|--0-0--0-----|-------------3p0----|--3b----------------|-------3p0----3----|


e|-------------|--------------------|----------------|----------------|---0---|
B|--0----------|--3---3-------------|----------------|----------------|---0---|
G|--1-------2--|--2---2-------------|--4-4-4-4--4-4--|--4-4---0--0--0-|---1---|
D|--2-2--2--2--|--0---0----------2~-|--4-4-4-4--4-4--|--4-4---0--0--0-|---2---|
A|--2-2--2--4--|---------4p0--------|--2-2-2-2--2-2--|--2-2---2--2--2-|---2---|
E|--0-0--0-----|-------------3p0----|----------------|--------3--3--3-|---0---|



| /  slide up
| \  slide down
| h  hammer-on
| p  pull-off
| ~  vibrato
| +  harmonic
| x  Mute note
===============================================================================
Добавлено: 27.06.2012
Другие материалы по этой песне:

Страница создана 27.06.2012
http://primanota.ru/hot-leg/ive-met-jesus-chords.htm
Привет, Гость.
Предлагаем пройти революционный курс по гитаре.
Подарок от PrimaNota.Ru, забирай!