PrimaNota.ru - самый крупный в мире бесплатный архив песенных текстов, аккордов, табулатур и нот


Hot Hot Heat - Get In Or Get Out - аккорды и текст, бас-таба, видео

Регистрация Запомнить меня
Войти через:  Facebook Google Twitter Vk Yandex Mail.ru

Hot Hot Heat - Get In Or Get Out - аккорды и текст, бас-таба, видео

Печатать
Просмотров: 115
Уроки эстрадного вокала в Санкт-Петербурге
Get In Or Get Out
Hot Hot Heat
Hot Hot Heat is probably one of the best things to come out of Canada!
After listening to "Make Up the Breakdown" about a million times I
decided to have a try at tabbing out a couple of the songs. THIS IS ALL
MY OWN WORK. This is track number 2 on that album entitled "Get In or get
out". I think I may be a little off in some parts but if I am this is a
great starting off point. Have fun! Any questions or comments just drop
me a line at BoyWithFangs@aol.com
 

Intro

e ---------------------------------------------------------

B ---------------------------------------------------------

G ---------------------------------------------------------

D ---------------------------------------------------------

A --7-7-7-7-3-3--------------3-3-7-7-5-5-------------------

E --------------3-3--3-3-3-3-------------3-3---------------

 

                                              D

e ---------------------------------------------------------

B ---------------------------------------------------------

G --------------------------------------------7------------

D --------------------------------------------7------------

A --7-7-7-7-3-3--------------3-3-7-7-5-5-7-7--5------------

E --------------3-3--3-3-3-3-------------------------------

Verse

     E      C   G            C   E   D   G

e ---------------------------------------------------------

B ---------------------------------------------------------

G --9-9-9-9-5-5--------------5-5-9-9-7-7-------------------

D --9-9-9-9-5-5-5-5--5-5-5-5-5-5-9-9-7-7-5-5---------------

A --7-7-7-7-3-3-5-5--5-5-5-5-3-3-7-7-5-5-5-5---------------

E --------------3-3--3-3-3-3-------------3-3---------------

 

     E      C   G            C   E   D   E   D

e ---------------------------------------------------------

B ---------------------------------------------------------

G --9-9-9-9-5-5--------------5-5-9-9-7-7-9-9-7-------------

D --9-9-9-9-5-5-5-5--5-5-5-5-5-5-9-9-7-7-9-9-7-------------

A --7-7-7-7-3-3-5-5--5-5-5-5-3-3-7-7-5-5-7-7-5-------------

E --------------3-3--3-3-3-3-------------------------------

 

Chorus

    G           D           E           Ab    A

e ---------------------------------------------------------

B ---------------------------------------------------------

G --12-12-12-12-------------------------11-11-12-12--------

D --12-12-12-12-12-12-12-12-14-14-14-14-11-11-12-12--------

A --10-10-10-10-12-12-12-12-14-14-14-14-9--9--10-10--------

E --------------10-10-10-10-12-12-12-12--------------------

 

    G           D           E           A   

e ---------------------------------------------------------

B ---------------------------------------------------------

G --12-12-12-12-------------------------12-12-12-12--------

D --12-12-12-12-12-12-12-12-14-14-14-14-12-12-12-12--------

A --10-10-10-10-12-12-12-12-14-14-14-14-10-10-10-10--------

E --------------10-10-10-10-12-12-12-12--------------------

 

Solo/Verse 2

 

Background of verse 2

e -------------------------------3--------------

B --5-3----5-3----5-3-----5-3-----3--5-3--------

G ------0------0------0-------0----0-----0------(x2)

D ----------------------------------------------play with

A ----------------------------------------------it a little

E ----------------------------------------------

 

Chorus one more time! And youâ^À^Ùre done~!


     
Добавлено: 11.08.2013
Другие материалы по этой песне:
  • Аккорды и текст

Страница создана 10.03.2012
http://primanota.ru/hot-hot-heat/get-in-or-get-out-chords.htm
Привет, Гость.
Предлагаем пройти революционный курс по гитаре.
Подарок от PrimaNota.Ru, забирай!