PrimaNota.ru - самый крупный в мире бесплатный архив песенных текстов, аккордов, табулатур и нот


Hot Cross - A Tale For The Ages - текст песни, таба, видео

Регистрация Запомнить меня
Войти через:  Facebook Google Twitter Vk Yandex Mail.ru

Hot Cross - A Tale For The Ages - текст песни, таба, видео

Печатать
Просмотров: 116
Уроки эстрадного вокала в Санкт-Петербурге
Hot Cross
A Tale for the Ages

       Riff I
       e-------------------------------------------------------------------|
       B-------------------------------------------------------------------|
Guitar G-------------------------------------------------------------------|
  I    D-------------------------------------------------------------------|
       A--6h7-7-7-7p6-6-6-6h7-7-7-7p6-6h7-7-7-7p6-6-6p4-4-4----------------|
       E--4---4-4-4---4-4-4---4-4-4---4---4-4-4---4-4---4-4----------------|


       Riff II
       e--------------------------------------------------------------------|
       B--------------------------------------------------------------------|
Guitar G-----------6h8-6-----6-----------8p6----6------------------6b8-8p6--|
  II   D--6--6-6-6--------9-----6--6-6-6------9---9-6--6-6-6--6h9-----------|
       A--------------------------------------------------------------------|
       E--------------------------------------------------------------------|


       Riff III
       e----------------------4-----------4----------------------------------|
       B-------------------5-----------5-------------------------------------|
Guitar G-x-x-x-x-x-x----4-----------4----------------------------------------|
  II   D-x-x-x-x-x-x-4-----------6-------------------------------------------|
       A---------------------------------------------------------------------|
       E---------------------------------------------------------------------|


       Riff IV
       e---------------------------------------------------------------------|
       B-------------------------5---------7---------------------------------|
Guitar G-8-8-8-8-------------------4---------6-------------------------------|
  I    D-6-6-6-6---------2X---2------6--4------8-----------------------------|
       A---------6-6-6-6------2---------4------------------------------------|
       E---------4-4-4-4------0---------2------------------------------------|


       Riff V
       e------4----------4---------------------------------------------------|
       B-------5----5-----5-------x--x--x--x--x-x-x-x------------------------|
Guitar G--------4-----4----4------11-11-11-11/7-7-7-7------------------------|
  II   D--6--------6----6----6----x--x--x--x--x-x-x-x------------------------|
       A---------------------------------------------------------------------|
       E---------------------------------------------------------------------|


       Riff VI
       e---------------------------------------------------------------------|
       B---------------------------------------------------------------------|
Guitar G---------------------------------------------------------------------|
I & II D-6-6-6-6--6--6/4~--/6--6-6-6-6--6------------------------------------|
       A-6-6-6-6--6--6/4~--/6--6-6-6-6--6------------------------------------|
       E-4-4-4-4--4--4/2~--/4--4-4-4-4--4------------------------------------|


       Riff VII
       e---------------------------------------------------------------------|
       B---------------------------------------------------------------------|
Guitar G-------8-6---6------------6-8----------------------------------------|
  II   D-6~--------9---6~-------9-----9---6~---------------------------------|
       A--------------------------------9------------------------------------|
       E---------------------------------------------------------------------|


       Riff IIX
       e--------4--6--4--6-4-6-4-6---------------4-----------4---------------|
       B-----4--------------------------------5-----------5------------------|
Guitar G-----------------------------------4-----------4---------------------|
  II   D-6------------------------------4-----------6------------------------|
       A---------------------------------------------------------------------|
       E---------------------------------------------------------------------|


       Riff IX
       e---------------------------------------------------------------------|
       B---------7-----------------------------------------------------------|
Guitar G-----4---------------------------------------------------------------|
  I    D--4------------------------------------------------------------------|
       A---------------------------------------------------------------------|
       E---------------------------------------------------------------------|


       Riff X (last time through play end twice)
       e-----------------------------------------------11b--16b--11b---------|
       B-----------9-----------------9--------9b--12b-----------------12b14~-|
Guitar G--------8-----8-----------8-----8------------------------------------|
  II   D--6--9-----------9--6--9-----------9---------------------------------|
       A---------------------------------------------------------------------|
       E---------------------------------------------------------------------|


       Riff XI(last time only play the chords)
       e---------------------------------------------------------------------|
       B---------------------------------------------------------------------|
Guitar G-----------------------6---9---6-------------------------------------|
I & II D-2-------4-------6---------------------------------------------------|
       A-2-------4-------6---------------------------------------------------|
       E-0-------2-------4---------------------------------------------------|


ORDER
Time      Guitar I
0:00-0:47-Riff I 6X
0:48-0:51-Rest
0:52-1:02-Riff I 2X
1:03-1:07-Rest
1:08-1:26-Riff IV 3X
1:27-1:33-Riff VI 2X
1:34-1:40-Riff I 2X
1:41-1:48-Rest
1:49-2:09-Riff IV 3X
2:09-2:13-Riff VI 2X
2:14-3:01-N/A
3:02-3:04-Riff IX 1X
3:05-3:30-N/A
3:31-3:41-Riff VI 4X
3:42-4:11-Riff XI 4X

Time      Guitar II
0:33-0:47-Riff II 1X
0:48-0:51-Riff III 1X
0:52-1:02-Riff II 1X
1:03-1:07-Riff III 1X
1:08-1:26-Riff V 3X
1:27-1:33-Riff VI 2X
1:34-1:40-Riff VII 1X
1:41-1:48-Riff IIX 1X
1:49-2:09-Riff V 3X
2:09-2:13-Riff VI 2X
2:14-3:03-N/A
3:04-3:30-Riff X 3X
3:31-3:41-Riff VI 4X
3:42-4:11-Riff XI 4X
Добавлено: 12.07.2012
Другие материалы по этой песне:
  • Аккорды и текст

Страница создана 28.04.2012
http://primanota.ru/hot-cross/a-tale-for-the-ages-chords.htm
Привет, Гость.
Предлагаем пройти революционный курс по гитаре.
Подарок от PrimaNota.Ru, забирай!