PrimaNota.ru - самый крупный в мире бесплатный архив песенных текстов, аккордов, табулатур и нот


Hot Club De Paris - Your Face Looks Wrong - таба, бас-таба, видео

Регистрация Запомнить меня
Войти через:  Facebook Google Twitter Vk Yandex Mail.ru

Hot Club De Paris - Your Face Looks Wrong - таба, бас-таба, видео

Печатать
Просмотров: 125
Standard Tuning (E A D G B E)


 Intro (0:00)
  Q=140
 4/4
  Gtr I
  Q  Q  Q  Q    W          Q  Q  Q  Q
|-------------|----------|-------------|
|-8--5--------|----------|-8--5--------|
|-------------|-5--------|-------------|
|-------5--7--|----------|-------5--7--|
|-------------|----------|-------------|
|-------------|----------|-------------|


 5/4
  E E E E E Q.   Q    E E E E E Q.   Q
|-------------------|-------------------|
|-------6p5------8--|-------6p5------8--|
|-5h7-------5-------|-5h7-------5-------|
|-----5-------------|-----5-------------|
|-------------------|-------------------|
|-------------------|-------------------|


  E E E E E Q.   Q    E E E E E Q.   Q
|-------------------|-------------------|
|-------6p5------8--|-------6p5------8--|
|-5h7-------5-------|-5h7-------5-------|
|-----5-------------|-----5-------------|
|-------------------|-------------------|
|-------------------|-------------------|


 Verse 1 (0:13)
  Wx4
|--------|
|--------|
|--------|
|--------|
|--------|
|--------|


                4/4
  Wx4            Q  Q  Q  Q
|--------------|------------|
|--------------|-8--5-------|
|--------------|------------|
|--------------|-------5--7-|
|--------------|------------|
|--------------|------------|


 5/4
  E E E E E Q.   Q    E E E E E Q.   Q
|-------------------|-------------------|
|-------6p5------8--|-------6p5------8--|
|-5h7-------5-------|-5h7-------5-------|
|-----5-------------|-----5-------------|
|-------------------|-------------------|
|-------------------|-------------------|


  E E E E E Q.   Q    E E E E E Q.   Q
|-------------------|-------------------|
|-------6p5------8--|-------6p5------8--|
|-5h7-------5-------|-5h7-------5-------|
|-----5-------------|-----5-------------|
|-------------------|-------------------|
|-------------------|-------------------|


 Verse 2 (0:40)
  Q  E Q.   H      Wx3
|------8---------|--------|
|----8-----------|--------|
|----------------|--------|
|----------------|--------|
|----------------|--------|
|----------------|--------|


                4/4
  Wx4            Q  Q  Q  Q
|--------------|-------------|
|--------------|-8--5--------|
|--------------|-------------|
|--------------|-------5--7--|
|--------------|-------------|
|--------------|-------------|


 Verse 3 (0:59)
 5/4
  E Q  E Q  E E E E   E Q  E Q  E E E E
|-------------------|-------------------|
|-8----8----8---8---|-8----8----8---8---|
|-------------------|-------------------|
|-------------------|-------------------|
|-------------------|-------------------|
|-------------------|-------------------|


  E Q  E Q  E E E E   E Q  E Q  E E E E
|-------------------|-------------------|
|-8----8----8---8---|-8----8----8---8---|
|-------------------|-------------------|
|-------------------|-------------------|
|-------------------|-------------------|
|-------------------|-------------------|


  E Q  E Q  E E E E   E Q  E Q  E E E E
|-------------------|-------------------|
|-8----8----8---8---|-8----8----8---8---|
|-------------------|-------------------|
|-------------------|-------------------|
|-------------------|-------------------|
|-------------------|-------------------|


                                         4/4
  E Q  E Q  E E E E   E Q  E Q  E E E E   Q  Q  Q  Q
|-------------------|-------------------|--------------|
|-8----8----8---8---|-8----8----8---8---|-8--5---------|
|-------------------|-------------------|--------------|
|-------------------|-------------------|-------5--7---|
|-------------------|-------------------|--------------|
|-------------------|-------------------|--------------|


 Chorus (1:16)
                             |-3-| |-3-|
  e E E S S S S S S e E   Q  E E E E E E E E
|-----------------------|--------------------|
|-----------------------|----5-5-5-5-5-5-5---|
|-5-----7-7-7-7-7-7-7---|--------------------|
|-----------------------|--------------------|
|-----------------------|--------------------|
|-----------------------|--------------------|


  H    S S S S e E   Q  Q  Q  Q
|------------------|---------------|
|------8-8-8-8-8---|-8--5----------|
|------------------|---------------|
|------------------|-------5--7----|
|------------------|---------------|
|------------------|---------------|


                             |-3-| |-3-|
  e E E S S S S S S e E   Q  E E E E E E E E
|-----------------------|--------------------|
|-----------------------|----5-5-5-5-5-5-5---|
|-5-----7-7-7-7-7-7-7---|--------------------|
|-----------------------|--------------------|
|-----------------------|--------------------|
|-----------------------|--------------------|


  H    S S S S e E   Q  Q  Q  Q
|------------------|---------------|
|------8-8-8-8-8---|-8--5----------|
|------------------|---------------|
|------------------|-------5--7----|
|------------------|---------------|
|------------------|---------------|


                             |-3-| |-3-|
  e E E S S S S S S e E   Q  E E E E E E E E
|-----------------------|--------------------|
|-----------------------|----5-5-5-5-5-5-5---|
|-5-----7-7-7-7-7-7-7---|--------------------|
|-----------------------|--------------------|
|-----------------------|--------------------|
|-----------------------|--------------------|


  H    S S S S e E   Q  Q  Q  Q
|------------------|---------------|
|------8-8-8-8-8---|-8--5----------|
|------------------|---------------|
|------------------|-------5--7----|
|------------------|---------------|
|------------------|---------------|


                             |-3-| |-3-|
  e E E S S S S S S e E   Q  E E E E E E E E
|-----------------------|--------------------|
|-----------------------|----5-5-5-5-5-5-5---|
|-5-----7-7-7-7-7-7-7---|--------------------|
|-----------------------|--------------------|
|-----------------------|--------------------|
|-----------------------|--------------------|


  H    S S S S e E   Q  Q  Q  Q
|------------------|---------------|
|------8-8-8-8-8---|-8--5----------|
|------------------|---------------|
|------------------|-------5--7----|
|------------------|---------------|
|------------------|---------------|


  e E E S S S S S S e E   Q  E S S S S S S e E
|-----------------------|----------------------|
|-----------------------|------5-5-5-5-5-5-5---|
|-5-----7-7-7-7-7-7-7---|----------------------|
|-----------------------|----------------------|
|-----------------------|----------------------|
|-----------------------|----------------------|


  Q  E S S S S S S e E   Q  Q  Q  Q
|----------------------|-------------|
|------8-8-8-8-8-8-8---|-8--5--------|
|----------------------|-------------|
|----------------------|-------5--7--|
|----------------------|-------------|
|----------------------|-------------|


  e E E S S S S S S e E   Q  E S S S S S S e E
|-----------------------|----------------------|
|-----------------------|------5-5-5-5-5-5-5---|
|-5-----7-7-7-7-7-7-7---|----------------------|
|-----------------------|----------------------|
|-----------------------|----------------------|
|-----------------------|----------------------|


  Q  E S S S S S S e E   Q  Q  Q  Q
|----------------------|-------------|
|------8-8-8-8-8-8-8---|-8--5--------|
|----------------------|-------------|
|----------------------|-------5--7--|
|----------------------|-------------|
|----------------------|-------------|


  e E E S S S S S S e E   Q  E S S S S S S e E
|-----------------------|----------------------|
|-----------------------|------5-5-5-5-5-5-5---|
|-5-----7-7-7-7-7-7-7---|----------------------|
|-----------------------|----------------------|
|-----------------------|----------------------|
|-----------------------|----------------------|


  Q  E S S S S S S e E   Q  Q  Q  Q
|----------------------|-------------|
|------8-8-8-8-8-8-8---|-8--5--------|
|----------------------|-------------|
|----------------------|-------5--7--|
|----------------------|-------------|
|----------------------|-------------|


  e E E S S S S S S e E   Q  E S S S S S S e E
|-----------------------|----------------------|
|-----------------------|------5-5-5-5-5-5-5---|
|-5-----7-7-7-7-7-7-7---|----------------------|
|-----------------------|----------------------|
|-----------------------|----------------------|
|-----------------------|----------------------|


  Q  E S S S S S S e E   Q  Q  Q  Q
|----------------------|-------------|
|------8-8-8-8-8-8-8---|-8--5--------|
|----------------------|-------------|
|----------------------|-------5--7--|
|----------------------|-------------|
|----------------------|-------------|


 Outro (2:06)
  E E E E E Q.     W
|----------------|------|
|-------6p5------|-8----|
|-5h7-------5----|-5----|
|-----5----------|-5----|
|----------------|------|
|----------------|------|
Добавлено: 24.07.2012
Другие материалы по этой песне:

Страница создана 26.02.2012
http://primanota.ru/hot-club-de-paris/your-face-looks-wrong-chords.htm
Привет, Гость.
Предлагаем пройти революционный курс по гитаре.
Подарок от PrimaNota.Ru, забирай!