PrimaNota.ru - самый крупный в мире бесплатный архив песенных текстов, аккордов, табулатур и нот


Hot Club De Paris - Shipwreck - текст песни, таба, видео

Регистрация Запомнить меня
Войти через:  Facebook Google Twitter Vk Yandex Mail.ru

Hot Club De Paris - Shipwreck - текст песни, таба, видео

Печатать
Просмотров: 67
---------------------------------------------------------------
                 Shipwreck - Hot Club de Paris
---------------------------------------------------------------

Tabbed by: Tom Rowell (Trowzaa)
Song name: Shipwreck
Artist: Hot Club de Paris
Tuning: Standard (EADGBe)

Verse

e|-5---2---------2-------|-5---2---------2-------|-5---2---------2-------|-5---2---------2-------------|
B|-3---3---0h2h3---3-2-3-|-3---3---0h2h3---3-2-3-|-3---3---0h2h3---3-2-3-|-3---3---0h2h3---3-2-3--0----|
G|-----------------------|-----------------------|-----------------------|-----------------------------| 
D|-----------------------|-----------------------|-----------------------|-----------------------------|  x3
A|-----------------------|-----------------------|-----------------------|-----------------------------|
E|-----------------------|-----------------------|-----------------------|-----------------------------|  

Chorus

e|------------------|----------------|-------------------|----------------|
B|------------------|----------------|-------------------|----------------|
G|------------------|----------------|-------------------|----------------|
D|-7-7-4--4-0-2-4-0-|-7-7-4--4-0-2-0-|-7-7-4--4-0-2-4-0--|-7-7-4--4-0-2-0-|
A|------------------|----------------|-------------------|----------------|
E|------------------|----------------|-------------------|----------------|

e|-----------------------------------------------------------------------|
B|-----------------------------------------------------------------------|
G|-----------------------------------------------------------------------|
D|-<12>-<12>-<12>-<12>-<12>-<12>-<12>-<12>-<12>-<12>-<12>-<12>-<12>-<12>-|
A|-----------------------------------------------------------------------|
E|-----------------------------------------------------------------------|

Shipwreck

e|-----------------------------|--------------------------------|
B|-----------------------------|--------------------------------|
G|-----------------------------|--------------------------------|
D|-7-4-4-4-7-4-4-4-7-4-4-4-7---|-7-4-4-4-7-4-4-4-7-4-4-4-7-9-7--| x2
A|-----------------------------|--------------------------------| 
E|-----------------------------|--------------------------------|

e|------------------|----------------|-------------------|----------------|
B|------------------|----------------|-------------------|----------------|
G|------------------|----------------|-------------------|----------------|
D|-7-7-4--4-0-2-4-0-|-7-7-4--4-0-2-0-|-7-7-4--4-0-2-4-0--|-7-7-4--4-0-2-0-|
A|------------------|----------------|-------------------|----------------|
E|------------------|----------------|-------------------|----------------|

e|-----------------------------|--------------------------------|
B|-----------------------------|--------------------------------|
G|-----------------------------|--------------------------------|
D|-7-4-4-4-7-4-4-4-7-4-4-4-7---|-7-4-4-4-7-4-4-4-7-4-4-4-7-9-7--| x2
A|-----------------------------|--------------------------------| 
E|-----------------------------|--------------------------------|

e|------------------|----------------|-------------------|----------------|
B|------------------|----------------|-------------------|----------------|
G|------------------|----------------|-------------------|----------------|
D|-7-7-4--4-0-2-4-0-|-7-7-4--4-0-2-0-|-7-7-4--4-0-2-4-0--|-7-7-4--4-0-2-0-|
A|------------------|----------------|-------------------|----------------|
E|------------------|----------------|-------------------|----------------|

Verse

e|-5---2---------2-------|-5---2---------2-------|-5---2---------2-------|-5---2---------2-------------|
B|-3---3---0h2h3---3-2-3-|-3---3---0h2h3---3-2-3-|-3---3---0h2h3---3-2-3-|-3---3---0h2h3---3-2-3--0----|
G|-----------------------|-----------------------|-----------------------|-----------------------------| 
D|-----------------------|-----------------------|-----------------------|-----------------------------|  x2
A|-----------------------|-----------------------|-----------------------|-----------------------------|
E|-----------------------|-----------------------|-----------------------|-----------------------------|

Interlude

e|------------------|------------------|
B|------------------|------------------|
G|------------------|------------------|
D|-7--4-5-7-4-9-7---|-9--7-4-5-4-5-4---|
A|------------------|------------------|
E|------------------|------------------|

Harmonics

e|---------------------------------------|---------------------------------------|
B|---------------------------------------|---------------------------------------|
G|---------------------------------------|---------------------------------------|
D|-<12>-<12>-<12>-<12>-<12>-<12>-<12>----|-<12>-<12>-<12>-<12>-<12>-<12>-<12>----|
A|---------------------------------------|---------------------------------------|
E|---------------------------------------|---------------------------------------|

e|--------------------------------|--------------------------------|
B|--------------------------------|--------------------------------|
G|---------------------<7>--------|---------------------<7>--------|
D|-<7>-<7>-<7>-<7>-<7>------------|-<7>-<7>-<7>-<7>-<7>------------|
A|-------------------------<7>----|-------------------------<7>----|
E|--------------------------------|--------------------------------|

Ending riff

e|-----------------|-----------------|-----------------|-------------------|
B|-----------------|-----------------|-----------------|-------------------|
G|-----------------|-----------------|-----------------|-------------------|
D|-7-4-4-4-7-4-4-4-|-7-4-4-4-7-4-4-4-|-7-4-4-4-7-4-4-4-|-7-4-4-4-0h2h4h2h0-| x6
A|-----------------|-----------------|-----------------|-------------------|
E|-----------------|-----------------|-----------------|-------------------|

e|-----------------|-----------------|-----------------|-----------------|
B|-----------------|-----------------|-----------------|-----------------|
G|-----------------|-----------------|-----------------|-----------------|
D|-7-4-4-4-7-4-4-4-|-7-4-4-4-7-4-4-4-|-7-4-4-4-7-4-4-4-|-7-4-4-4-7-4-4-4-|
A|-----------------|-----------------|-----------------|-----------------|
E|-----------------|-----------------|-----------------|-----------------|

e|-----------------|-----------------|----------------------|-2~------|
B|-----------------|-----------------|----------------------|-1~------|
G|-----------------|-----------------|----------------------|-2~------|
D|-7-4-4-4-7-4-4-4-|-7-4-4-4-7-4-4-4-|-4-4-4-4-4-4--4-4-4-4-|-0~------|
A|-----------------|-----------------|----------------------|---------|
E|-----------------|-----------------|----------------------|---------|
Добавлено: 26.06.2016
Другие материалы по этой песне:
  • Аккорды и текст

Страница создана 14.05.2012
http://primanota.ru/hot-club-de-paris/shipwreck-chords.htm
Привет, Гость.
Предлагаем пройти революционный курс по гитаре.
Подарок от PrimaNota.Ru, забирай!