PrimaNota.ru - самый крупный в мире бесплатный архив песенных текстов, аккордов, табулатур и нот


Hot Club De Paris - Clockwork Toy - таба, бас-таба, видео

Регистрация Запомнить меня
Войти через:  Facebook Google Twitter Vk Yandex Mail.ru

Hot Club De Paris - Clockwork Toy - таба, бас-таба, видео

Печатать
Просмотров: 145
Hot Club de Paris - Clockwork Toy
~~~

Standard Tuning (E A D G B E)

Intro
  Q=160
 4/4
  Gtr I
  E E E E E E E E   E E E E E E E E   E E E E E E E E
|-8-------8---8---|-8-------8---8---|-8-------8---8---|
|---8---8---8---8-|---8---8---8---8-|---8---8---8---8-|
|-----5-----------|-----5-----------|-----5-----------|
|-----------------|-----------------|-----------------|
|-----------------|-----------------|-----------------|
|-----------------|-----------------|-----------------|


  E E E E E E E E   E  E E  E E E Q    E  E E  E Q  Q
|-8-------8---8---|-8h10-------------|-8h10------------|
|---8---8---8---8-|------8h10--------|------8h10p8-----|
|-----5-----------|-----------5h7p5--|-----------------|
|-----------------|------------------|-----------------|
|-----------------|------------------|-----------------|
|-----------------|------------------|-----------------|


  E E E E E E E E   E E E E E E E E   E E E E E E E E   E E E E E E E E
|-8-------8---8---|-8-------8---8---|-8-------8---8---|-8-------8---8---|
|---8---8---8-----|---8---8---8-----|---8---8---8-----|---8---8---8-----|
|-----5-----------|-----5-----------|-----5-----------|-----5-----------|
|-----------------|-----------------|-----------------|-----------------|
|-----------------|-----------------|-----------------|-----------------|
|-----------------|-----------------|-----------------|-----------------|


 Verse 1
  E E E E E E E E   E E E E E E E E   E E E E E E E E   E E E E E E E E
|-8-------8---8---|-8-------8---8---|-8-------8---8---|-8-------8---8---|
|---8---8---8-----|---8---8---8-----|---8---8---8-----|---8---8---8-----|
|-----5-----------|-----5-----------|-----5-----------|-----5-----------|
|-----------------|-----------------|-----------------|-----------------|
|-----------------|-----------------|-----------------|-----------------|
|-----------------|-----------------|-----------------|-----------------|


    E E E E E E E E   E E E E E E E E   E E E E E E E E   E E E E E E E E
||--8-------8---8---|-8-------8---8---|-8-------8---8---|-8-------8---8---|
||o---8---8---8-----|---8---8---8-----|---8---8---8-----|---8---8---8-----|
||------5-----------|-----5-----------|-----5-----------|-----5-----------|
||------------------|-----------------|-----------------|-----------------|
||o-----------------|-----------------|-----------------|-----------------|
||------------------|-----------------|-----------------|-----------------|


  E  E E  E E E Q    E  E E  E E E Q    E  E E  E E E Q    E  E E  E E E Q
|-8h10-------------|-8h10-------------|-8h10-------------|-8h10-------------||
|------8h10--------|------8h10--------|------8h10--------|------8h10-------o||
|-----------5h7p5--|-----------5h7p5--|-----------5h7p5--|-----------5h7p5--||
|------------------|------------------|------------------|------------------||
|------------------|------------------|------------------|-----------------o||
|------------------|------------------|------------------|------------------||


   Chorus 1
   3/4                         4/4
    E E E E E E   E E E E E E   E E E E E E E E  4x
||--8---8---8---|-8---8---8---|-8---8---8---8----||
||o---8---8---8-|---8---8---8-|---8---8---8---8-o||
||--------------|-------------|------------------||
||--------------|-------------|------------------||
||o-------------|-------------|-----------------o||
||--------------|-------------|------------------||


  E  E E  E E E Q    E  E E  E Q  Q
|-8h10-------------|-8h10------------|
|------8h10--------|------8h10p8-----|
|-----------5h7p5--|-----------------|
|------------------|-----------------|
|------------------|-----------------|
|------------------|-----------------|


 Verse 2
  E E E E E E E E   E E E E E E E E   E E E E E E E E   E E E E E E E E
|-8-------8---8---|-8-------8---8---|-8-------8---8---|-8-------8---8---|
|---8---8---8-----|---8---8---8-----|---8---8---8-----|---8---8---8-----|
|-----5-----------|-----5-----------|-----5-----------|-----5-----------|
|-----------------|-----------------|-----------------|-----------------|
|-----------------|-----------------|-----------------|-----------------|
|-----------------|-----------------|-----------------|-----------------|


    E E E E E E E E   E E E E E E E E   E E E E E E E E   E E E E E E E E
||--8-------8---8---|-8-------8---8---|-8-------8---8---|-8-------8---8---|
||o---8---8---8-----|---8---8---8-----|---8---8---8-----|---8---8---8-----|
||------5-----------|-----5-----------|-----5-----------|-----5-----------|
||------------------|-----------------|-----------------|-----------------|
||o-----------------|-----------------|-----------------|-----------------|
||------------------|-----------------|-----------------|-----------------|


  E  E E  E E E Q    E  E E  E E E Q    E  E E  E E E Q    E  E E  E E E Q
|-8h10-------------|-8h10-------------|-8h10-------------|-8h10-------------||
|------8h10--------|------8h10--------|------8h10--------|------8h10-------o||
|-----------5h7p5--|-----------5h7p5--|-----------5h7p5--|-----------5h7p5--||
|------------------|------------------|------------------|------------------||
|------------------|------------------|------------------|-----------------o||
|------------------|------------------|------------------|------------------||


   Chorus 2
   3/4                         4/4
    E E E E E E   E E E E E E   E E E E E E E E  4x
||--8---8---8---|-8---8---8---|-8---8---8---8----||
||o---8---8---8-|---8---8---8-|---8---8---8---8-o||
||--------------|-------------|------------------||
||--------------|-------------|------------------||
||o-------------|-------------|-----------------o||
||--------------|-------------|------------------||


   Bridge
    Q.   Q  E Q    W          Q.   Q  E Q    W     3x
||---------------|----------|--------------|-------||
||o--------------|----------|--------------|------o||
||---------------|----------|--------------|-------||
||--0----2--5-5--|----------|-0----2--5-5--|-------||
||o--------------|----------|--------------|------o||
||---------------|----------|--------------|-------||


  Q.   Q  E Q    W          Q.   Q  E Q    W
|--------------|----------|--------------|------|
|--------------|----------|--------------|------|
|--------------|----------|--------------|------|
|-0----2--5-5--|----------|-0----2--5-5--|------|
|--------------|----------|--------------|------|
|--------------|----------|--------------|------|


  E  E E  E E E Q    E  E E  E E E Q    E  E E  E E E Q    E  E E  E E E Q
|-8h10-------------|-8h10-------------|-8h10-------------|-8h10-------------|
|------8h10--------|------8h10--------|------8h10--------|------8h10--------|
|-----------5h7p5--|-----------5h7p5--|-----------5h7p5--|-----------5h7p5--|
|------------------|------------------|------------------|------------------|
|------------------|------------------|------------------|------------------|
|------------------|------------------|------------------|------------------|


   Chorus 3
   3/4                         4/4
    E E E E E E   E E E E E E   E E E E E E E E  4x
||--8---8---8---|-8---8---8---|-8---8---8---8----||
||o---8---8---8-|---8---8---8-|---8---8---8---8-o||
||--------------|-------------|------------------||
||--------------|-------------|------------------||
||o-------------|-------------|-----------------o||
||--------------|-------------|------------------||


   Alternate Chorus
                                        1.,2.
   4/4
    E E E E E E E E   E E E E E E E E   E E E E E E E E
||--8-------8---8---|-8-------8---8---|-8-------8---8---|
||o---8---8---8---8-|---8---8---8---8-|---8---8---8---8-|
||------5-----------|-----5-----------|-----5-----------|
||------------------|-----------------|-----------------|
||o-----------------|-----------------|-----------------|
||------------------|-----------------|-----------------|


                      3.
  E E E E E E E E     E E E E E E E E   E E E E E E E E
|-8-------8---8----||-8-------8---8---|-8-------8---8------|
|---8---8---8---8-o||---8---8---8---8-|---8---8---8---8----|
|-----5------------||-----5-----------|-----5--------------|
|------------------||-----------------|--------------------|
|-----------------o||-----------------|--------------------|
|------------------||-----------------|--------------------|


 Outro
  E E E E E E E E   E E E E E E E E
|-8-------8---8---|-8-------8---8---|
|---8---8---8---8-|---8---8---8---8-|
|-----5-----------|-----5-----------|
|-----------------|-----------------|
|-----------------|-----------------|
|-----------------|-----------------|


                H.=HQ=140   Q=120
  E E E E E E E E   E E E E E E E E    W
|-8-------8---8---|-8-------8---8---|-^8----*|
|---8---8---8---8-|---8---8---8---8-|-^8----*|
|-----5-----------|-----5-----------|-^5----*|
|-----------------|-----------------|-------*|
|-----------------|-----------------|-------*|
|-----------------|-----------------|-------*|
Добавлено: 19.06.2012
Другие материалы по этой песне:

Страница создана 09.03.2012
http://primanota.ru/hot-club-de-paris/clockwork-toy-chords.htm
Привет, Гость.
Предлагаем пройти революционный курс по гитаре.
Подарок от PrimaNota.Ru, забирай!