PrimaNota.ru - самый крупный в мире бесплатный архив песенных текстов, аккордов, табулатур и нот


Hot Chocolate - Tears On The Telephone - текст песни, бас-таба, видео

Регистрация Запомнить меня
Войти через:  Facebook Google Twitter Vk Yandex Mail.ru

Hot Chocolate - Tears On The Telephone - текст песни, бас-таба, видео

Печатать
Просмотров: 201
Уроки эстрадного вокала в Санкт-Петербурге
-------------------------------------------------------------------------------
                    Tears on the Telephone - Hot Chocolate
-------------------------------------------------------------------------------

Tabbed by: TBone142
e-mail: tbone142@freemail.hu

Tuning: standard EADG

Intro, verse 1:
G|---------------------------------------|
D|---------------------------------------|
A|-1---1--1---1-----1---1--1---1---------|x5
E|----------3----1-----------3----1-1--3-|

G|---------------------------------------|
D|---------------------------------------|
A|-1---1--1---1-----1---1--1---1--3-3-3-5|
E|----------3----1-----------3-----------|

Bridge:
G|---------------------------------------------------------------------------|
D|-1---1----1--3--1---1--1---1----------1---1----1--3--1---1--1---1----------|
A|--------3----------------3----1-1--3---------1----------------1----1-1--3--|
E|---------------------------------------------------------------------------|

G|---------------------------------------------------------------------------|
D|-1---1----1--3-------------------------------------------------3-3/5--3----|
A|--------1------------------------------------------------1--3--------------|
E|----------------4-4-4---4---4--4--3---1---1---1--1---1---------------------|

Chorus:
G|---------------------------------------|
D|---------------------------------------|
A|-1---1--1---1-----1---1--1---1---------|x2
E|----------3----3-----------3----1-1--3-|

G|---------------------------------------------------------------------------|
D|--------------------------------3----1---1--1---1--3-----------------------|
A|-1---1--1---1-----1-1--3--3--5----5-----------1----------------------------|
E|----------3----3--------------------------------------4-4-4--4--4-4--4-----|

G|---------------------------------------------------------------------------|
D|--------3--------------------------------------------3---------------------|
A|-3-3-5----5-6---6--6---6--8-------------------3-3-5----6---6--6---6--6-8\--|
E|---------------------6-------4-4-4--4--4-4--4-------------------6----------|

G|---------------------------------------|
D|------------------------3-3/5--3/5(\)--|
A|------------------1--3-----------------|
E|-1---1--1-1--1--1----------------------|

Verse 2:
G|---------------------------------------|
D|---------------------------------------|
A|-1---1--1---1-----1---1--1---1---------|x3
E|----------3----------------3----1-1--3-|

G|---------------------------------------|
D|---------------------------------------|
A|-1---1--1---1-----1---1--1---1--3-3-3-5|
E|----------3----------------3-----------|

Bridge:
G|---------------------------------------------------------------------------|
D|-1---1----1-----1---1--1---1----------1---1----1-----1---1--1---1----------|
A|--------3----------------3----1-1--3---------1----------------1----1-1--3--|
E|---------------------------------------------------------------------------|

G|---------------------------------------------------------------------------|
D|-1---1----1---------------------------------------------------3-3/5--3/5(\)|
A|--------1------------------------------------------------1--3--------------|
E|----------------4-4-4---4---4--4--3---1---1---1--1---1---------------------|

Chorus, bridge:
G|---------------------------------------|
D|---------------------------------------|
A|-1---1--1---1-----1---1--1---1---------|x2
E|----------3----------------3----1-1--3-|

G|---------------------------------------------------------------------------|
D|----------------------------------3--------3--3--3-3--3------3-5-3--3--3--3|
A|-1---1--1---1-----1-1--3--3-3--5----5--3-5---------------3-5---------------|
E|----------3----------------------------------------------------------------|

G|---------------------------------------------------------------------------|
D|--------3--3--3---3----3-5-3---3--3--3-3---------3--3--3---3----3-5-3------|
A|-3-3-5----------5----5-------5-------------3--5----------5----5-------5----|
E|---------------------------------------------------------------------------|

G|---------------------------------------------------------------------------|
D|-3--3----3-3----------------------------3--3/5--3--------------------------|
A|-------5------3-3-3-5-------------3--5-------------------------------------|
E|-----------------------1--1--1--1------------------------------------------|

Verse 2:
G|---------------------------------------|
D|---------------------------------------|
A|-1---1--1---1-----1---1--1---1---------|x3
E|----------3----------------3----1-1--3-|

G|---------------------------------------|
D|---------------------------------------|
A|-1---1--1---1-----1---1--1---1--3-3-3-5|
E|----------3----------------3-----------|

Bridge:
G|---------------------------------------------------------------------------|
D|-1---1----1-----1---1--1---1----------1---1----1-----1---1--1---1----------|
A|--------3----------------3----1-1--3---------1----------------1----1-1--3--|
E|---------------------------------------------------------------------------|

G|---------------------------------------------------------------------------|
D|-1---1----1----------------------------------------------------3-3/5--3----|
A|--------1------------------------------------------------1--3--------------|
E|----------------4-4-4---4---4--4--3---1---1---1--1---1---------------------|

Chorus, outro (fade out):
G|---------------------------------------------------------------------------|
D|---------------------------------------------------------------------------|
A|-1---1--1---1----1---1--1---1-------------1---1-----1----1---1--1---1------|
E|----------3---------------3----1-1-1-1-3----------3---------------3--------|

G|---------------------------------------------------------------------------|
D|---------------------------------------------------------------------------|
A|---------1---1--1---1----1---1--1---1-------------1---1--1---1-------------|
E|-1-1--3-----------3---------------3----1-1-1-1-3-----------3---------------|

G|---------------------------------------------------------------------------|
D|----------------------------------------------------------5--3-------------|
A|-1---1--1---1-------------1---1--1---1----1---1--1---1--3------5-----------|
E|----------3----1-1-1-1-3-----------3---------------3-----------------------|

G|---------------------------------------------------------------------------|
D|---------------------------------------------------------------------------|
A|-1---1--1---1-------1---1--1---1-------------1---1--1---1----1---1--1---1--|
E|----------3-----1-1----------3----1-1-1-1-3-----------3---------------3----|

G|-3-3h5---------------------------------------------------------------------|
D|-------3h5-----------------------------------------------------------------|
A|-----------1---1--1---1----1---1--1---1------------------------------------|
E|--------------------3---------------3--------------------------------------|

===============================================================================
Notes: 

If You have problems with this tab, write Me a mail what's wrong with it
instead of giving it a bad rating! It'd be better for everyone! Thx!


| /  slide up
| \  slide down
| h  hammer-on
| p  pull-off
| ~  vibrato
| +  harmonic
| x  Mute note
===============================================================================
Добавлено: 07.04.2012
Другие материалы по этой песне:
  • Аккорды и текст

Страница создана 07.04.2012
http://primanota.ru/hot-chocolate/tears-on-the-telephone-chords.htm
Привет, Гость.
Предлагаем пройти революционный курс по гитаре.
Подарок от PrimaNota.Ru, забирай!