PrimaNota.ru - самый крупный в мире бесплатный архив песенных текстов, аккордов, табулатур и нот


Hot Chip - Brothers - текст песни, бас-таба, видео

Регистрация Запомнить меня
Войти через:  Facebook Google Twitter Vk Yandex Mail.ru

Hot Chip - Brothers - текст песни, бас-таба, видео

Печатать
Просмотров: 107
-------------------------------------------------------------------------------
			     Brothers - Hot Chip
-------------------------------------------------------------------------------


Tabbed By : L. Boom (Jack C)
e-mail: leave improvements etc. in the comment section please.


My first tab. I like the song and am surprised it hasn't been tabbed. 

May not be entirely accurate, but it sounds pretty good. -Jack C



Intro

G|----------------|
D|----------------|
A|2-2-2-2-2-2-2-2-|
E|----------------|     x4


Verse:


(Brothers...)

G|----------------|
D|----------------|
A|2-2-2-2-2-2-2-2-|
E|----------------|     x4

G|----------------|
D|----------------|
A|----------------|
E|4-4-4-4-4-4-4-4-|     x4

G|----------------|
D|----------------|
A|----------------|
E|0-0-0-0-0-0-0-0-|     x1

G|----------------|
D|----------------|
A|----------------|
E|2-2-2-2-2-2-2-2-|     x1

and back to 

G|----------------|
D|----------------|
A|2-2-2-2-2-2-2-2-|
E|----------------|     etc.



Chorus:

(It's a wild love that I have...)


G|----------------|
D|----------------|
A|7-7-7-7-7-7-7-7-|
E|----------------|  x6

G|----------------|
D|----------------|
A|5-5-5-5-5-5-5-5-|
E|----------------|  x2

G|----------------|
D|----------------|
A|4-4-4-4-4-4-4-4-|
E|----------------|  x2 

G|----------------|
D|----------------|
A|2-2-2-2-2-2-2-2-|
E|----------------|  , back to verse.


Key change verse (only Alexis singing)


G|----------------|
D|----------------|
A|----------------|
E|4-4-4-4-4-4-4-4-| x2

G|----------------|
D|----------------|
A|4-4-4-4-4-4-4-4-|
E|----------------| x2


^play the above set x3


then:

G|-----------------------|
D|-----------------------|
A|11-11-11-11-11-11-11-11|
E|-----------------------| x2

G|------------------------|
D|------------------------|
A|12-12-12-12-12-12-12-12-|
E|------------------------| x2

^play the above set x2

then:

G|-----------------------|
D|-----------------------|
A|-----------------------|
E|11-11-11-11-11-11-11-11| x2

G|-----------------------|
D|-----------------------|
A|-----------------------|
E|9-9-9-9-9-9-9-9-9-9-9-9| x2

G|-----------------------|
D|-----------------------|
A|-----------------------|
E|7-7-7-7-7-7-7-7-7-7-7-7| x4


Back to chorus, etc. Have fun!


| /  slide up
| \  slide down
| h  hammer-on
| p  pull-off
| ~  vibrato
| +  harmonic
| x  Mute note
===============================================================================
Добавлено: 09.07.2012
Другие материалы по этой песне:
  • Аккорды и текст

Страница создана 09.07.2012
http://primanota.ru/hot-chip/brothers-chords.htm
Привет, Гость.
Предлагаем пройти революционный курс по гитаре.
Подарок от PrimaNota.Ru, забирай!