PrimaNota.ru - самый крупный в мире бесплатный архив песенных текстов, аккордов, табулатур и нот


Hot Chelle Rae - I Like To Dance - текст песни, таба, видео

Регистрация Запомнить меня
Войти через:  Facebook Google Twitter Vk Yandex Mail.ru

Hot Chelle Rae - I Like To Dance - текст песни, таба, видео

Печатать
Просмотров: 307
SONG: I like to Dance
ARTIST: Hot Chelle Rae
ALBUM Lovesick Electric

TUNING: Standard (EADGBe)
TABBED BY: AudioDemon

[ x : Mute   ]
[ = : Ringout]
[ ^ : Bend   ]

[Intro]
e|-----------------------------------------------------------|
B|---------------------------------------------------^-------|
G|----------------7------5---------------------------11=====-|   (Guitar 1)
D|----7-----7---------------------3-xx--3------5-----11=====-|
A|--------------55-5---33-3---------xx---------------9-=====-|
E|--55-5---5-5------------------11-1xx-1-1---33-3------------|


[Chorus]
e|--------------------------------------------------------|
B|--------------------------------------------------------|
G|----------------7------5--------------------------------|   (Guitar 1&2)
D|----7-xx--7---------------------3-xx--3------5------6---|
A|------xx------55-5---33-3---------xx--------------------|
E|--55-5xx-5-5------------------11-1xx-1-1---33-3---44-4--|


e|--------------------------------------------------------|
B|--------------------------------------------------------|
G|-----The intro solo is going take me some time----------|   (Guitar 1)
D|--------------------------------------------------------|
A|--------------------------------------------------------|
E|--------------------------------------------------------|


e|---------------------------------------------------------|
B|---------------------------------------------------------|
G|----------------7------5---------------------------------|   (Guitar 2)
D|----7-xx--7---------------------3-xx--3------5------666--|
A|------xx------55-5---33-3---------xx----------------666--|
E|--55-5xx-5-5------------------11-1xx-1-1---33-3---44-44--|


[PreChorus]
e|--------------------------------------------------------|
B|--------------------------------------------------------|
G|-Strum--44444-666-555-----------------------------------|   (Guitar 1&2)
D|--with--44444-666-555-----------------------------------|
A|--Beat--22222-444-333-----------------------------------|
E|--------------------------------------------------------|


[Bridge]
e|--------------------------------------|
B|--------------------------------------|
G|--------------------------------------|    (Guitar 1&2)
D|---77--77-7-1010-----77--77-7-12-10---|
A|---77--77-7-8-8----- 77--77-7-10-8----| x2
E|---55--55-5-8-8------55--55-5-10-8----|


[Solo]
e|-------------------------------------------------------|
B|-------------------------------------------------------|
G|-------------------------------------------------------|   (Guitar 1)
D|--------------------------------------------------xxxx-|
A|--------------------------------------------------xxxx-|
E|--------------------------------------------------xxxx-|

e|------------------------------------|
B|------------------------------------|
G|------------------------------------|   (Guitar 2)
D|--7--------5--------8----------xxxx-|
A|--7-(x14)--5-(x14)--10-(x28)---xxxx-|
E|--5--------3--------10---------xxxx-|


=ORDER=


[Intro]
   -
[Chorus]
   -
[PreChorus]
   -
[Chorus]
   -
[PreChorus]
   -
[Chorus]
   -
[Bridge]
   -
[Chorus]
   -
[Bridge] x2
   -
[Solo]
   -
[Chorus] x2
   -
[Bridge]


Most everything is correct, if i have errors or you can tab the solo, email me at 
linkspawn@ymail.com
Добавлено: 24.02.2012
Другие материалы по этой песне:
  • Аккорды и текст

Страница создана 24.02.2012
http://primanota.ru/hot-chelle-rae/i-like-to-dance-chords.htm
Привет, Гость.
Предлагаем пройти революционный курс по гитаре.
Подарок от PrimaNota.Ru, забирай!