PrimaNota.ru - самый крупный в мире бесплатный архив песенных текстов, аккордов, табулатур и нот


Hot Bodies In Motion - Whiskey Drive - таба, видео

Регистрация Запомнить меня
Войти через:  Facebook Google Twitter Vk Yandex Mail.ru

Hot Bodies In Motion - Whiskey Drive - таба, видео

Печатать
Просмотров: 142
standard tuning, no capo

verse:

e|--------------------|
b|--------------------|
g|-5----5/4----4------|
d|-7----7/5----5------|  repeat x8
a|-7----7/5----5------|
e|--------------------|

chorus:

e|-----------------------------------------------------------|
b|-----------------------------------------------8--5--------|
g|---------------5/4---------------------------5------7------|
d|--------5--7--------5---------------5---7------------5-----|
a|------7---------------5-----------7-------------------7----|
e|-5------------------------5--------------------------------|

e|-------------------------------------------------------3--|
b|-------------------------------------------------------3--|
g|--------------5\4--------------------------------------4--|
d|--------5--7-------5-----------------------------------5--|
a|------7---------------5---3---5------------------------5--|
e|-5--------------------------------3-x-4-5-----------0--3--|

oh oh oh oh we wont tell nobody
e|---------------------3-----|
b|---------------------3-----|
g|---------------------4-----|
d|---------------------5-----|  repeat x2
a|---------------------5-----|
e|-3--2--2--0----------3-----|

e|------------------------7---7--6--5---|
b|------------------------7---7--6--5---|
g|------------------------7---7--6--5---|
d|------------------------9---9--8--7---|
a|------------------------9---9--8--7---|
e|-3--2--2--0----------7--7---7--6--5---|

chorus:

e|-----------------------------------------------------------|
b|-----------------------------------------------8--5--------|
g|---------------5/4---------------------------5------7------|
d|--------5--7--------5---------------5---7------------5-----|
a|------7---------------5-----------7-------------------7----|
e|-5------------------------5--------------------------------|

e|----------------------------------------------------|
b|----------------------------------------------------|
g|--------------5\4-----------------------------------|
d|--------5--7-------5--------------------------------|
a|------7---------------5---3---5---------------------|
e|-5--------------------------------3-x-4-5-----------|

solo:

e|---------------------------------------------------------------|
b|---------------------------------------------------------------|
g|---------------------------------------------------------------|
d|---------------------------------------------5-5-5-5h7--5------|
a|----------3---5---5\7-----------3--5--5\7-------------------7--|
e|--5--5-------------------5---5---------------------------------|

e|-----------------------------------------------|
b|-----------------------------------------------|
g|-----------------------------------------------|
d|--------------------5h7--5---------------------|  repeat this part x4
a|---3--5--5\7----------------5h7--5-------------|
e|-5----------------------------------3-3--4--5--|

e|----------------|o5----------------------------o|
b|----------------|-5-----------------------------|
g|----------5-----|-------7--5-----5--7-----------|
d|--5--5h7-----7--|-------------7---------5-5-7---|repeat this several times
a|----------------|-------------------------------|
e|----------------|o-----------------------------o|

[drums and vocals]
this is a bass fill you can add for an intro to the final chorus:
e|--------------------------|
b|--------------------------|
g|--------------------------|
d|--5h7--5------------------|
a|----------7---5-----------|
e|-----------------3--4--5--|

end on chorus:

e|-------------------------------------------------------------|
b|-----------------------------------------------8--5----------|
g|---------------5/4---------------------------5------7--5-----|
d|--------5--7--------5---------------5---7-----------------7--|
a|------7---------------5-----------7--------------------------|
e|-5------------------------5----------------------------------|

e|---------------------------------------------------|
b|---------------------------------------------------|
g|--------------5\4----------------------------------|
d|--------5--7-------5-------------------------------|
a|------7---------------5---3---5--------------------|
e|-5--------------------------------3-x-4-5----------|

there it is. have fun with it
Добавлено: 18.08.2013
Вам также может быть интересно:
Другие материалы по этой песне:
  • Аккорды и текст

Страница создана 18.08.2013
http://primanota.ru/hot-bodies-in-motion/whiskey-drive-chords.htm
Привет, Гость.
Предлагаем пройти революционный курс по гитаре.
Подарок от PrimaNota.Ru, забирай!