PrimaNota.ru - самый крупный в мире бесплатный архив песенных текстов, аккордов, табулатур и нот


Hot Action Cop - Fever For The Flavor - таба, видео

Регистрация Запомнить меня
Войти через:  Facebook Google Twitter Vk Yandex Mail.ru

Hot Action Cop - Fever For The Flavor - таба, видео

Печатать
Просмотров: 155
Title: Fever for the Flavor
Artist: Hot action cop

Riff 1:

All palm muted
Can I get a little…
E---------------------------------------|
B-1---1-2-1---1-4-4--1---1-2-1---1------|
G-2-2-------2--------2-2-------2---4-4--|
D---------------------------------------|
A---------------------------------------|
E---------------------------------------|

Riff 2
You've got the power…
E-------------------|
B-------------------|
G-------------------|
D-9-9--8------------|
A-7-7--6-6-4-4-6-4--|
E--------4-2-2-4-2--|

Then this multiple times (I'm not writing the beat even though I can)
E-x-
B-x-
G-x-
D-x-
A-x-
E-x-

Riff 3
Oooaay-hay-hay…
E----------------------------------------|
B----------------------------------------|
G----------------------------------------|
D-9-9--13--13-13-13----------------------| x3 then play
A-7-7--11--11-11-11-7-7—9--9-9-9---|
E-------------------5-5-7--7-7-7---------|

What do I have to say…
E--------------------------------------------------------------------|
B--------------------------------------------------------------------|
G--------------------------------------------------------------------|
D-9-9--13--13-13-13------------------------------------    mmm…-|mmm
A-7-7--11--11-11-11-7-7-7-7-9-9-9-9-7-7-7-7-7-7-7-7-7----------------|
E-------------------5-5-5-5-7-7-7-7-5-5-5-5-5-5-5-5-5-—---------|

Riff 4

Guitar 1
E--------------------------------|
B--------------------------------|
G--------------------------------|
D--------------------------------|
A-2-2-2-----------------------2--|
E-0-0-0-1-0-0-3-0-0-1-0-0-3-0-0--|



Guitar 2
(Strums are cut in half so 1 strum really equals 2)
E------------------------------------------------------------------|
B------------------------------------------------------------------|
G-9-9-9-9-9-9-9-9-11-11-11-11-11-11-11-11-12-12-12-12-12-12-12-12--|
D------------------------------------------------------------------|
A-7-7-7-7-7-7-7-7-9--9--9--9--9--9--9--9--10-10-10-10-10-10-10-10--|
E------------------------------------------------------------------|

E----------------------------------------------------------|
B----------------------------------------------------------|
G-14-14-14-14-14-14-14-14-9-9-9-9-9-9-9-9-9-9-9-9-9-9-9-9--|
D----------------------------------------------------------|
A-12-12-12-12-12-12-12-12-7-7-7-7-7-7-7-7-7-7-7-7-7-7-7-7--|
E----------------------------------------------------------|

so uhh... thats it
Добавлено: 30.04.2012
Другие материалы по этой песне:
  • Аккорды и текст

Страница создана 30.04.2012
http://primanota.ru/hot-action-cop/fever-for-the-flavor-chords.htm
Привет, Гость.
Предлагаем пройти революционный курс по гитаре.
Подарок от PrimaNota.Ru, забирай!