PrimaNota.ru - самый крупный в мире бесплатный архив песенных текстов, аккордов, табулатур и нот


Hot Action Cop - Fever For The Flava - аккорды и текст, таба, бас-таба, видео

Регистрация Запомнить меня
Войти через:  Facebook Google Twitter Vk Yandex Mail.ru

Hot Action Cop - Fever For The Flava - аккорды и текст, таба, бас-таба, видео

Печатать
Просмотров: 503
Уроки эстрадного вокала в Санкт-Петербурге
Авторы музыки: Robert Werthner

Fever For The Flava
Hot Action Cop
		   PROPS TO: Whoever did this on bass so I could make it for guitar

Intro
e|----------------|----------------|----------------|----------------|
B|----------------|----------------|----------------|----------------|
G|----------------|----------------|----------------|----------------|
D|--------2-2-----|----------------|--------2-2-----|----------------|
A|----------------|--------2-2-----|----------------|--------2-2-----|
E|0-0-------------|0-0-------------|0-0-------------|0-0------------12\ working on this
the slide from 12 is by the bass but it's kinda fun...just mess with it

Verse (repeat 3x)
e|-----------------|----------------| you can kinda improv on it- change up the rhythm
B|-----------------|----------------| a bit
G|999---8----------|----------------|
D|999---8---66—66b8|4-4-------------|
A|777---6---66—66b8|4-4-------------|
E|000-------44—44b6|2-2-------------|

Chorus (got this from a bass tab and changed it to a guitar part
e|----------------|----------------| repeat twice, then
B|----------------|----------------|
G|9---------------|2-----4---------|
D|9-----6---------|2-----4---------|
A|7-----6---------|0-----2---------|
E|0-----4---------|----------------|
                                    Not sure about this last part, nor was the bass guy
e|----------------|----------------|----------------|-------- just mess around and make
B|----------------|----------------|----------------|-------- it sound cool
G|9---------------|2-------4-----34|3-898---2-------|--------
D|9-----6---------|2-------4-----34|3-898---2-------|--------
A|7-----6---------|0-------2-----12|1-676---0-------|--------
E|0-----4---------|----------------|----------------|--------

Verse (only play once)
Mmmmmmmmmmmm!

Intro twice, but bass does this cool slide thing at the end that goes
e|----------------|
B|----------------|
G|----------------|
D|----------------|
A|--------2-2-----|
E|0-0------------3\12\

Verse (3x)

Chorus (repeat first part twice, then go

e|----------------|----------------|----------------|--------
B|----------------|----------------|----------------|--------
G|9---------------|2-------4-----34|3-898---2-------|--------
D|9-----6---------|2-------4-----34|3-898---2--6--5-|-4--3--- slide down the bottom 3
A|7-----6---------|0-------2-----12|1-676---0--6--5-|-4--3--- strings and make it sound
E|0-----4---------|----------------|-----------4--3-|-2--1--- cool

Verse (4x)

Bridge- really fast, just screw around with the 022, 244, and 355 chords
e|----------------|----------------|----------------|----------------| play 10 measures
B|----------------|----------------|----------------|----------------|
G|----------------|----------------|----------------|----------------|
D|2-22422452242242|2-22422452242242|2-22422452242242|2-22422452242242|
A|2-22422452242242|2-22422452242242|2-22422452242242|2-22422452242242|
E|0-00200230020030|0-00200230020030|0-00200230020030|0-00200230020030|
The other part there on top is
e|-0~-------------|-2~-------------|-3~-------------|-5~-------------|-0~-------------|

Intro

Verse (3 measures)

Chorus...same as the second time

Verse (4 measures)

Bridge

End on E 079900
Mmmmmmmmmmmm!     
Добавлено: 13.11.2013
Другие материалы по этой песне:

Страница создана 04.03.2012
http://primanota.ru/hot-action-cop/fever-for-the-flava-chords.htm
Привет, Гость.
Предлагаем пройти революционный курс по гитаре.
Подарок от PrimaNota.Ru, забирай!