PrimaNota.ru - самый крупный в мире бесплатный архив песенных текстов, аккордов, табулатур и нот


Hot Action Cop - Face Around - текст песни, бас-таба, видео

Регистрация Запомнить меня
Войти через:  Facebook Google Twitter Vk Yandex Mail.ru

Hot Action Cop - Face Around - текст песни, бас-таба, видео

Печатать
Просмотров: 196
G------------------|  It's kind of a weird but cool beat, and you'll get the
D------------------|   hang of it. It's pretty easy.
A------------------|
E--5-5-55-5-5-5555-| intro/chorus/solo
B------------------|

G-------------------------------------------------------------|
D------------------5-5-55-5-5-5555----------------------------|  X2 start
A-------------------------------------------------------------| after guitar
E--3-3-33-3-3-3333-----------------5-5-55-5-5-5555------------| intro
B-------------------------------------------------------------|

G------7/12--10/14----------------------------------|
D---------------------------------------------------| Little Verse bit by bass.
A--00------------- Listen for how many times to do--|
E---------------------------------------------------|
B---------------------------------------------------|

G-----------------------|
D-----------------------| Breakdown after little verse bits.
A--00-------------------|
E------0-33-0-33-033-55-|
B-----------------------|

G-----------------| Other little verse bit of bass. I tried working out the
D-----------------| rythym the best I could, but I know you guys'l figure it
A----------567----| out.
E--33--5-67-------|
B-----------------|


prechorus
G-------|
D-------| X 4
A-------|
E-0-1-3-|
B-------|

Chorus

Verse

Chorus
Solo
Post solo
G------------------| You just do the chorus order, but hold the notes. After
D------------------| the solo, it breaks to prechorus and then chorus. That
A---------------5--| is it. I'm pretty sure about this tab, and please rate
E-5~-----3~--------| it as it is my first one.
B------------------|

Order:
Intro X2
Verse
Prechorus
Chorus
Verse
Prechorus
CHorus
Solo
Chorus
Добавлено: 12.07.2012
Другие материалы по этой песне:
  • Аккорды и текст

Страница создана 27.02.2012
http://primanota.ru/hot-action-cop/face-around-chords.htm
Привет, Гость.
Предлагаем пройти революционный курс по гитаре.
Подарок от PrimaNota.Ru, забирай!