PrimaNota.ru - самый крупный в мире бесплатный архив песенных текстов, аккордов, табулатур и нот


Hostile Omish - Mohawk - таба, видео

Регистрация Запомнить меня
Войти через:  Facebook Google Twitter Vk Yandex Mail.ru

Hostile Omish - Mohawk - таба, видео

Печатать
Просмотров: 94
Song:Mohawk
Album:As The World Churns
Artist:Hostile Omish
Genre: Barn-Core
Year: 2007
Tuning: Standard (E,A,D,G,B,E)

Intro x4
E----------|
B----------|
G-----5----|
D-7-5-5x12-|
A-7-5-3----|
E-5-3------|

Pre-Verse 1
E------|
B------|
D-7-5--|
A-7-5--|
E-5-3--|

Verse 1
E-------------------------------------------|
B-------------------------------------------|
G-5-------------------5555-4444-2-----------|
D-5x12--7-5---3---5---5555-4444-2x8--3---5--|
A-3-----7-5---3x8-5x8-3333-2222-0----3x8-5--|
E-------5-3---1---3------------------1---3--|
 (Repeat x2)

Chorus 1 x2
E------------------------------|
B------------------------------|
G-5-5-5-5-5-5-5-5-5-5-5-5------|
D-5-5-5-5-5-5-5-5-5-5-5-5--7-5-|
A-3-3-3-3-3-3-3-3-3-3-3-3--7-5-|
E--------------------------5-3-|

Then:
*Verse 2
*Chorus 2 x2

Solo Part 1 x2
E-12-12-12-12-12-12--12-12h13p12-------|
B--------------------------------13-8--|
G--------------------------------------|
D--------------------------------------|
A--------------------------------------|
E--------------------------------------|

Solo Part 2
E------------8--10----8-10-12~-13-13-13-12-10-8-8-10~--|
B-6-8b10-8----8---8--8---------------------------------|
G------------------------------------------------------|
D------------------------------------------------------|
A------------------------------------------------------|
E------------------------------------------------------|

Solo Part 3 x2
E-----12-----12~~--|
B-13b---13rb-13~~--|
G------------------|
D------------------|
A------------------|
E------------------|

Fast Part x2
E-------------------------|
B-------------------------|
G------------55-44-22-XX--|
D-3----5-----55-44-22-XX--|
A-3x12-5x12--33-22-00-XX--|
E-1----3------------------|
 (Repeat x2) (Repeat x2)

Pre-Chorus 1
E---------------------|
B---------------------|
G---------------------|
D-33333333--55555555--|
A-33333333--55555555--|
E-11111111--33333333--|

Chorus 3 x2
E-----------|
B-----------|
G-5---------|
D-5x12-7-5--|
A-3----7-5--|
E------5-3--|

Then:
Verse 3

Chorus 4 x3
E------------|
B------------|
G-5----4444--|
D-5x12-4444--|
A-3----2222--|
E------------|

Outro
E---------|
B---------|
G-5---X\--|
D-5x12X\--|
A-3---X\--|
E---------|

Key:
X\=Pickscrape
b=Bend the note
rb=Release The Bent Note
~=Let ring Out
h=hammer on
p=pull off
8b10=bend the 8 to match the pitch of the 10th fret

Here's A Link To The Song If You Wanna Play Along:
http://www.youtube.com/watch?v=ODNl4z60xLE

And Here Is A Link To Their Facebook Page:
https://www.facebook.com/pages/Hostile-Omish/190732587635528

Please Comment And Rate If You Liked The Tab, I'd Really Appreciate It.
Добавлено: 02.12.2013
Вам также может быть интересно:
Другие материалы по этой песне:
  • Аккорды и текст

Страница создана 02.12.2013
http://primanota.ru/hostile-omish/mohawk-chords.htm
Привет, Гость.
Предлагаем пройти революционный курс по гитаре.
Подарок от PrimaNota.Ru, забирай!