PrimaNota.ru - самый крупный в мире бесплатный архив песенных текстов, аккордов, табулатур и нот


Hostage Life - Sons Of Hostage Life - таба, видео

Регистрация Запомнить меня
Войти через:  Facebook Google Twitter Vk Yandex Mail.ru

Hostage Life - Sons Of Hostage Life - таба, видео

Печатать
Просмотров: 100
Intro:
e|---------------------------------|
B|---------------------------------|
G|---------------------------------|
D|---9--------------9-9------------|
A|---7(x6)---7-7-7--7-7--7---------|
E|-----------5-5-5-------5---------|


Main Riff:
e|---------------------------|
B|---------------------------|
G|---------------------------|
D|--9------------------------|
A|--7(x6)-7--9--7--7-7-------|
E|--------5--7--5--5-5-------|


1st lead lick:
e|-------------------------|
B|-------------------------|
G|-------------------------|
D|-13-13-13-11-9-9-11-9----|
A|-------------------------|
E|-------------------------|


Fill in:
e|-----------------------------------------|
B|-----------------------------------------|
G|-----------------------------------------|
D|--9------------9-------9-----------------|
A|--7(x6)-7--9-7-7--6--(x7)--9(x8)---------|
E|--------5--7-5---------------------------|

Riff 2:
e|-------------------------------------------|
B|-------------------------------------------|
G|-----------------9-------------------------|
D|--9-------7------9-------------------------|
A|--9-------7------7(x6)---7-6-4-------------|
E|--7(x6)---5(x6)----------5-4-2-4-----------|



Riff 3:
e|------------------------------------|
B|------------------------------------|
G|--------------------9---------------|
D|--4------4--4-------9---------------|
A|--4------4--4-------7(x8)-----------|
E|--2(x6)--0--2(x6)-------------------|


2nd lead lick:
e|-12--------------12------------------12----------------12------------------|
B|---------------------------------------------------------------------------|
G|-------13-14-13---------13-14-13-------------13-14-13--------14-13---------|
D|----14--------------14-------------------14--------------14----------------|
A|---------------------------------------------------------------------------|
E|---------------------------------------------------------------------------|


2nd Fill In: 

e|-----------------------------------------------|
B|-----------------------------------------------|
G|-----------------------------------------------|
D|--4------4--4-------7--------9-----------------|
A|--4------4--4-------7--------9-----------------|
E|--2(x6)--0--2(x6)---5(x8)----7(x3)-------------|


3rd fill in:

e|-----------------------------------------------|
B|-----------------------------------------------|
G|-----------------7-----------------------------|
D|--9-------7------7-------x-x-x-----------------|
A|--9-------7------5(x6)---x-x-x-----------------|
E|--7(x6)---5(x6)----------x-x-x-----------------|



Riff 4:
e|---------------------------------------------------------------------------|
B|---------------------------------------------------------------------------|
G|---------------------------------------------------------------------------|
D|---7---------------7-----------------------------------9--------9----------|
A|---5(x16)---7--9---5(x16)--7---9----11--------9---7----7(x8)-6--7(x7)------|
E|------------5--7-----------5---7----9-(x8)----7---5------------------------|




e|---------------------------------------------------------------------------|
B|---------------------------------------------------------------------------|
G|---------------------------------------------------------------------------|
D|---7---------------7-----------------------------------9--------9----------|
A|---5(x6)----7--9---5(x16)--7---9----11--------9---7----7(x8)-6--7(x7)------|
E|------------5--7-----------5---7----9-(x8)----7---5------------------------|


Bridge:

e|----------------------|
B|----------------------|
G|----------------------|
D|----------------------|
A|----2-----------------|
E|----0(X3)-------------|


3rd lead lick:

e|-----------------4-5-4----------4-5-4---------4-5-4---------------------|
B|------------------------------------------------------------------------|
G|---9(x32)---------------------------------------------------------------|
D|-----------2-2-2--------2-2-2-----------2-2-----------------------------|
A|-----------2-2-2--------2-2-2-----------2-2-----------------------------|
E|-----------0-0-0--------0-0-0-----------0-0-----------------------------|


Riff 5:

e|----------------------------------------------------------|
B|----------------------------------------------------------|
G|---------------------------------9-----x--9---------------|
D|--2-2--2--4------4-------4-------9-----x--9---------------|
A|--2-2--2--4------4-------4-------7(x6)-x--7(x6)-----------|
E|--0-0--0--2(x6)--0(x2)---2(x2)----------------------------|


4th lead lick:
e|---------------------------------------------------------------------------|
B|---------------------------------------------------------------------------|
G|---------------------------------------------------------------------------|
D|--6(x4)-9(x4)-11(x4)/13-14-13--16--------13-14-13--16----13-14-13----------|
A|-------------------------------------14---------------14-------------------|
E|---------------------------------------------------------------------------|

4th fill in:
e|--------------------------------------------------|
B|--------------------------------------------------|
G|--------------------------------------------------|
D|-2---4-------7--------9---------------------------|
A|-2---4-------7--------9---------------------------|
E|-0---2(x8)---5(x4)----7(x4)-----------------------|


5th lead lick:
e|-----------------------------------17-19--17----17-----------|
B|--------------------------19-17-19-----------19--------------|
G|-----11-----11-14--------------------------------------------|
D|--14----14---------------------------------------------------|
A|-------------------------------------------------------------|
E|-------------------------------------------------------------|

ending:
e|----------------------------------|
B|----------------------------------|
G|--------------9-------------------|
D|--9-----7-----9--------9-9--9-----|
A|--9-----7-----7(x6)-6--7-7--7-----|
E|--7(x6)-5(x6)---------------------|

**********************************************************************************
Here's the order:

Rhythm:        lead:

Intro

Main Riff x3    1st lead lick

Fill In

Main Riff x 2

Riff 2

Main riff x 2

Riff 2

Riff 3 x 2       2nd lead lick x2

2nd Fill In 

Main riff x 2

Riff 2

Main riff x2

3rd Fill In

Riff 4

Bridge x 8     3rd lead lick 

Riff 5 x 2     4th lead lick x 2

4th fill in    5th lead lick

Main riff x 2

riff 2  

Main riff x2   1st lead lick

riff 2 x 2     2nd lead lick x2

Ending         2nd lead lick 
       





 



Добавлено: 27.06.2012
Вам также может быть интересно:
Другие материалы по этой песне:
  • Аккорды и текст

Страница создана 27.06.2012
http://primanota.ru/hostage-life/sons-of-hostage-life-chords.htm
Привет, Гость.
Предлагаем пройти революционный курс по гитаре.
Подарок от PrimaNota.Ru, забирай!