PrimaNota.ru - самый крупный в мире бесплатный архив песенных текстов, аккордов, табулатур и нот


Hostage Life - Securing My Seat - таба, видео

Регистрация Запомнить меня
Войти через:  Facebook Google Twitter Vk Yandex Mail.ru

Hostage Life - Securing My Seat - таба, видео

Печатать
Просмотров: 85
-------------------------------------------------------------------------------
                 SECURING MY SEAT - HOSTAGE LIFE
-------------------------------------------------------------------------------
Tabbed by: Jared C.
Email: vnv.nation@hotmail.com

Tuning: E A D G B e

                              [-----INTRO-----]

e|---0----------0---0---0---0---0--0----------0---0---0---0---0--------------|
B|---0----------0---0---0---0---0--0----------0---0---0---0---0--------------|
G|---1----------2---1---2---1---2--1----------2---1---2---1---2------------|X5
D|---2----------2---2---2---2---2--2----------2---2---2---2---2--------------|  
A|---2----------2---2---2---2---2--2----------2---2---2---2---2--------------|
E|---0----------0---0---0---0---0--0----------0---0---0---0---0--------------|

                              [-----VERSE-----]

e|------------------------0---------0---0---0---0---0------------------------|
B|------------------------0---------0---0---0---0---0------------------------|
G|--------------6---------1---------2---1---2---1---2------------------------|
D|---4--4--4-4--6---7-7---2---------2---2---2---2---2------------------------|
A|---4--4--4-4--4---7-7---2---------2---2---2---2---2------------------------|
E|---2--2--2-2------5-5---0---------0---0---0---0---0------------------------|

e|---0----------0---0---0---0---0--0----------0---0---0---0---0--------------|
B|---0----------0---0---0---0---0--0----------0---0---0---0---0--------------|
G|---1----------2---1---2---1---2--1----------2---1---2---1---2--------------|
D|---2----------2---2---2---2---2--2----------2---2---2---2---2--------------|  
A|---2----------2---2---2---2---2--2----------2---2---2---2---2--------------|
E|---0----------0---0---0---0---0--0----------0---0---0---0---0--------------|

e|---0----------0---0---0---0---0--------------------------------------------|
B|---0----------0---0---0---0---0--------------------------------------------|
G|---1----------2---1---2---1---2-------------6------------------------------|
D|---2----------2---2---2---2---2--4--4--4-4--6---7-7------------------------|
A|---2----------2---2---2---2---2--4--4--4-4--4---7-7------------------------|
E|---0----------0---0---0---0---0--2--2--2-2------5-5------------------------|

e|---0----------0---0---0---0---0--------------------------------------------|
B|---0----------0---0---0---0---0--------------------------------------------|
G|---1----------2---1---2---1---2------------6-------------------------------|
D|---2----------2---2---2---2---2--4--4--4-4-6-----------------7-7-----------|
A|---2----------2---2---2---2---2--4--4--4-4-4-----------------7-7-----------|
E|---0----------0---0---0---0---0--2--2--2-2-------------------5-5-----------|

e|---0----------0---0---0---0---0--------------------------------------------|
B|---0----------0---0---0---0---0--------------------------------------------|
G|---1----------2---1---2---1---2--------------------------------------------|
D|---2----------2---2---2---2---2--------------------------------------------|  
A|---2----------2---2---2---2---2--------------------------------------------|
E|---0----------0---0---0---0---0--------------------------------------------|

                            [-----CHORUS-----]

e|---------------------------------------------------------------------------|
B|-------------------------------------------5-5-7-7-5-5-5-5-----------------|
G|-------------6-6-6---------------------------------------------------------|
D|---7--7-7-7--6-6-6--7-7-7----2-2-4-4-2-2-2---------------------------------|
A|---7--7-7-7--4-4-4--7-7-7--------------------------------------------------|
E|---5--5-5-5---------5-5-5--------------------------------------------------|

e|---------------------------------------------------------------------------|
B|----------------------------5-5-5-7-7-7-9-9-9-121212-----------------------|
G|---------------------------------------------------------------------------|
D|---7--7-7-7-7--6-6-6-4-4-4--2-2-2-4-4-4-6-6-6-9-9-9------------------------|
A|---7--7-7-7-7--6-6-6-4-4-4-------------------------------------------------|
E|---5--5-5-5-5--4-4-4-2-2-2-------------------------------------------------|

e|---------------------------------------------------------------------------|
B|---------------------------------------5-7-4-5-5-5-5-----------------------|
G|------------6-6-6------------1-4-1-4-6-------------------------------------|
D|---7--7-7-7-6-6-6-7-7-7--2-4-----------------------------------------------|
A|---7--7-7-7-4-4-4-7-7-7----------------------------------------------------|
E|---5--5-5-5-------5-5-5----------------------------------------------------|

e|---------------------------------------------------------------------------|
B|-------------------------------------5-5---7-7---9-9---1212-5-7------------|
G|---------------------------------------------------------------------------|
D|---4-4-4-4-4-4-4-4-4-4-4-4-4-4-4-4---2-2---4-4---6-6---9-9--2-4------------|
A|---4-4-4-4-4-4-4-4-4-4-4-4-4-4-4-4-----------------------------------------|
E|---2-2-2-2-2-2-2-2-2-2-2-2-2-2-2-2-----------------------------------------|

                              [-----VERSE-----]

e|---0----------0---0---0---0---0--0----------0---0---0---0---0--------------|
B|---0----------0---0---0---0---0--0----------0---0---0---0---0--------------|
G|---1----------2---1---2---1---2--1----------2---1---2---1---2------------|x3
D|---2----------2---2---2---2---2--2----------2---2---2---2---2--------------|  
A|---2----------2---2---2---2---2--2----------2---2---2---2---2--------------|
E|---0----------0---0---0---0---0--0----------0---0---0---0---0--------------|

e|------------------------0---------0---0---0---0---0------------------------|
B|------------------------0---------0---0---0---0---0------------------------|
G|--------------6---------1---------2---1---2---1---2------------------------|
D|---4--4--4-4--6---7-7---2---------2---2---2---2---2------------------------|
A|---4--4--4-4--4---7-7---2---------2---2---2---2---2------------------------|
E|---2--2--2-2------5-5---0---------0---0---0---0---0------------------------|

e|---0----------0---0---0---0---0--0----------0---0---0---0---0--------------|
B|---0----------0---0---0---0---0--0----------0---0---0---0---0--------------|
G|---1----------2---1---2---1---2--1----------2---1---2---1---2--------------|
D|---2----------2---2---2---2---2--2----------2---2---2---2---2--------------|  
A|---2----------2---2---2---2---2--2----------2---2---2---2---2--------------|
E|---0----------0---0---0---0---0--0----------0---0---0---0---0--------------|

e|------------------------------------------4--------------------------------|
B|---------------------------------------------------------------------------|
G|--------------6------------------------------------------------------------|
D|---4--4--4-4--6-------------------------------------------7-7--------------|
A|---4--4--4-4--4-------------------------------------------7-7--------------|
E|---2--2--2-2----------------------------------------------5-5--------------|

e|---0----------0---0---0---0---0--------------------------------------------|
B|---0----------0---0---0---0---0--------------------------------------------|
G|---1----------2---1---2---1---2--------------------------------------------|
D|---2----------2---2---2---2---2--------------------------------------------|  
A|---2----------2---2---2---2---2--------------------------------------------|
E|---0----------0---0---0---0---0--------------------------------------------|

                           [-----CHORUS-----]

e|---------------------------------------------------------------------------|
B|-------------------------------------------5-5-7-7-5-5-5-5-----------------|
G|-------------6-6-6---------------------------------------------------------|
D|---7--7-7-7--6-6-6--7-7-7----2-2-4-4-2-2-2---------------------------------|
A|---7--7-7-7--4-4-4--7-7-7--------------------------------------------------|
E|---5--5-5-5---------5-5-5--------------------------------------------------|

e|---------------------------------------------------------------------------|
B|----------------------------5-5-5-7-7-7-9-9-9-121212-----------------------|
G|---------------------------------------------------------------------------|
D|---7--7-7-7-7--6-6-6-4-4-4--2-2-2-4-4-4-6-6-6-9-9-9------------------------|
A|---7--7-7-7-7--6-6-6-4-4-4-------------------------------------------------|
E|---5--5-5-5-5--4-4-4-2-2-2-------------------------------------------------|

e|---------------------------------------------------------------------------|
B|---------------------------------------5-7-4-5-5-5-5-----------------------|
G|------------6-6-6------------1-4-1-4-6-------------------------------------|
D|---7--7-7-7-6-6-6-7-7-7--2-4-----------------------------------------------|
A|---7--7-7-7-4-4-4-7-7-7----------------------------------------------------|
E|---5--5-5-5-------5-5-5----------------------------------------------------|

e|---------------------------------------------------------------------------|
B|-------------------------------------5-5---7-7---9-9---1212-5-7------------|
G|---------------------------------------------------------------------------|
D|---4-4-4-4-4-4-4-4-4-4-4-4-4-4-4-4---2-2---4-4---6-6---9-9--2-4------------|
A|---4-4-4-4-4-4-4-4-4-4-4-4-4-4-4-4-----------------------------------------|
E|---2-2-2-2-2-2-2-2-2-2-2-2-2-2-2-2-----------------------------------------|

                             [-----OUTRO-----]

e|---0--------------------------0-----------0--------------------------------|
B|---0--------------------------0-----------0--------------------------------|
G|---1--------------------------1-----------2------------------------------|x4
D|---2--------------------------2-----------2--------------------------------|
A|---2--------------------------2-----------2--------------------------------|
E|---0--------------------------0-----------0--------------------------------|

e|---------------------------------------------------------------------------|
B|---------------------------------------------------------------------------|
G|---------------1-1-1-4-4-4-4-4-4-4-4-------------1-1-1-4-4-4-4-4-4-4-4-----|
D|---2-2-2-4-4-4-----------------------2-2-2-4-4-4------------------------|x2
A|---------------------------------------------------------------------------|
E|---------------------------------------------------------------------------|

e|---------------------------------------------------------------------------|
B|--0-0-0-2-2-2-4-4-4-5-5-5-5-5-5-5-0-0-0-2-2-2-4-4-4-5-5-5-5-5-5-5-5--------|
G|------------------------------------------------------------------------|x15
D|---------------------------------------------------------------------------|
A|---------------------------------------------------------------------------|
E|---------------------------------------------------------------------------|

| /  slide up
| \  slide down
| h  hammer-on
| p  pull-off
| ~  vibrato
| +  harmonic
| x  Mute note
===============================================================================
Добавлено: 16.05.2012
Другие материалы по этой песне:
  • Аккорды и текст

Страница создана 16.05.2012
http://primanota.ru/hostage-life/securing-my-seat-chords.htm
Привет, Гость.
Предлагаем пройти революционный курс по гитаре.
Подарок от PrimaNota.Ru, забирай!