PrimaNota.ru - самый крупный в мире бесплатный архив песенных текстов, аккордов, табулатур и нот


Hostage Life - Hostage Life Are Fucking Alive And Well - таба, видео

Регистрация Запомнить меня
Войти через:  Facebook Google Twitter Vk Yandex Mail.ru

Hostage Life - Hostage Life Are Fucking Alive And Well - таба, видео

Печатать
Просмотров: 93
Song:Hostge Life Are Fucking Alive and Well
Artist:Hostage Life
Album:Walking Papers

Tabbed by:AdamBlack
Email:umblack@hotmail.com

Tab's almost perfect, rhythmn and timing aren't 100% but just listen to the song and you'll be good.
Tuning:Standard

Intro/Chorus
e|-0-0-0-----0-0------5-5-5-4-4-7-5----------------------2-2-2-4-4---------|
B|-0-0-0-4-4-0-0------5-5-5-5-5-5-5----5-5-5-4-4-5-5-----0-0-0-0-0-4-4-----|
G|-------4-4---------------------------6-6-6-6-6-6-6---------------4-4-----|
D|-------------------------------------------------------------------------|
A|-------------------------------------------------------------------------|
E|-------------------------------------------------------------------------|

Intro/Verse
e|----------------|  |------------|-------------|---------------------|
B|----------------|  |------------|-------------|---------------------|
G|-9-----------6--|  |-6--2-2-----|-6-----------|--2-2-2--9----8-8--9-|
D|-9---6-6-6---6--|  |-6--2-2-----|-6--2-2-4-4--|--2-2-2--9-9--8-8--9-|
A|-7---6-6-6---4--|  |-4--4-4-----|-4--2-2-4-4--|--0-0-0--7-9--6-6--7-|
E|-----4-4-4------|  |------------|----0-0-2-2--|-----------7---------|
                     *Alternate between the two.  End into verse...
Listen to the song for order
                                
Verse
e|---------------------------------------| |-----------------------|
B|---------------------------------------| |-----------------------|
G|-9-----6--4--2--4------9----6--4--2--2-| |-2-2-2--9-----8-8--9---|
D|-9-----6--4--2--4------9----6--4--2--2-| |-2-2-2--9--9--8-8--9---|
A|-7-----4--2--0--2------7----4--2--0--0-| |-0-0-0--7--7--6-6--7---|
E|---------------------------------------| |-----------7-----------|
  Again, listen to the song

Bridge
e|-----------------|  |------------------|----------------------------|
B|-----------------|  |------------------|----------------------------|
G|-6-6---6-6---6-6-|  |----------9-9-9---|-8-8--9-9-9-9--4-4-4-4--2-2-|
D|-6-6---6-6---6-6-|  |6-6--7-7--9-9-9---|-8-8--9-9-9-9--4-4-4-4--2-2-|
A|-4-4---4-4---4-4-|  |6-6--7-7--7-7-7---|-6-6--7-7-7-7--2-2-2-2--0-0-|
E|-----------------|  |4-4--5-5----------|----------------------------|

e|---------------------------------------------------------------------|
B|---------------------------------------------------------------------|
G|-6-6-6-6--6----6-6-6-6--4---2-2-2---9-9-9-9--------------------------|
D|-6-6-6-6--6----6-6-6-6--4---2-2-2---9-9-9-9--------------------------|
A|-4-4-4-4--4----4-4-4-4--6---0-0-0---7-7-7-7--------------------------|
E|---------------------------------------------------------------------|
  Back to Intro/Verse and end on B (7th fret, A string) 

Intro
Intro/Verse
Verse x2
Chorus
Verse
Bridge
Chorus
Intro/Verse
============================================================================
Добавлено: 24.07.2012
Другие материалы по этой песне:
  • Аккорды и текст

Страница создана 24.07.2012
http://primanota.ru/hostage-life/hostage-life-are-fucking-alive-and-well-chords.htm
Привет, Гость.
Предлагаем пройти революционный курс по гитаре.
Подарок от PrimaNota.Ru, забирай!