PrimaNota.ru - самый крупный в мире бесплатный архив песенных текстов, аккордов, табулатур и нот


Hostage Calm - Where The Waters Call Home - таба, видео

Регистрация Запомнить меня
Войти через:  Facebook Google Twitter Vk Yandex Mail.ru

Hostage Calm - Where The Waters Call Home - таба, видео

Печатать
Просмотров: 103
Hostage Calm
"Where the Waters Call Home"
Self-Titled (Run For Cover)
www.myspace.com/hostagecalmct

Intro
         x4 1.         2.           3.         4.
|---------|------------------------------------------------|
|---------|------------------------------------------------|
|---------|--------------------------------------------4---|
|-----4-0-|-----4-0--------4-0----------4-0--------4-0-2---|
|---2-----|---2-----3~---2-----3-------2----3~---2-----3---|
|-0-------|-0----------0---------1~--0---------0-----------|

Other guitar

|-0-0-0-0--0--0-------0--0------0--0-0000-0-0-0-0-0-0-0-0-0-----|
|-7-5-0-3--5--12br12b-12-12br12-10-5-8888-7-5-0-0-0-0-0-0-0-----|
|---------------------------------------------4-4-9-4-7-9-7-----|
|---------------------------------------------------------------|
|---------------------------------------------------------------|
|---------------------------------------------------------------|

Other other guitar (tremolo pick the note(s) + PM/eventually let up on the PM)

|-0-------------------------------------------------------------|
|-5---10--------------------------------------------------------|
|---------------------------------------------------------------|
|---------------------------------------------------------------|
|---------------------------------------------------------------|
|---------------------------------------------------------------|

Piano arranged for guitar

|-^17-----------|
|-^17-----------|
|-^16-----------|
|---------------|
|---------------|
|---------------|

Добавлено: 05.05.2012
Другие материалы по этой песне:
  • Аккорды и текст

Страница создана 05.05.2012
http://primanota.ru/hostage-calm/where-the-waters-call-home-chords.htm
Привет, Гость.
Предлагаем пройти революционный курс по гитаре.
Подарок от PrimaNota.Ru, забирай!