PrimaNota.ru - самый крупный в мире бесплатный архив песенных текстов, аккордов, табулатур и нот


Hostage Calm - Affidavit - таба, видео

Регистрация Запомнить меня
Войти через:  Facebook Google Twitter Vk Yandex Mail.ru

Hostage Calm - Affidavit - таба, видео

Печатать
Просмотров: 91
Hostage Calm
"Affidavit"
Self-Titled (Run For Cover)
www.myspace.com/hostagecalmct

UPDATED
MORE TABS: placeposition.blogspot.com
half step down

Left Speaker:

Intro/Verse 1

|------5-----------5----------5----------5--------|
|--5-----5-----5-----5-----5---------5-----5------|
|----5-----5-----5-----5-----5---------5----------|
|-5-----------4----------3-------------------//---| (pick slide)
|-------------------------------3-4-5--------//---|
|-------------------------------------------------|

                           1.          2.
|-------------------------------------|-------------|
|-------------------------------------|-------------|
|-5-5-5-5-5-5-5-5-9-10---------------.|-11~---------|
|-x-x-x-x-x-x-x-x-1010------10-----10.|-10----------|
|-3-3-3-3-5-5-5-5-8-8-------8------8--|-x~----------|
|---------------------------6-6666-6--|-10----------|
PM                            ....

Chorus 1

|-------------------5-5-5----------------------------|
|-------------5-5-5-6-6-6-3-3-3-3-3------------------|
|-7-7-7-7-7-7-5-5-5-7-7-7-3-3-3-3-3-4-4-4-4-4--------|
|-7-7-7-6-6-6-5-5-5-7-7-7-3-3-3-3-3-5-5-5-5-5--------|
|-5-5-5-7-7-7-3-3-3-5-5-5-1-1-1-1-1-5-5-5-5-5--------|
|-5-5-5-----------------------------3-3-3-3-3--------|

|------------------------------------------------5-----10----|
|----------------------------------------x-x-----6-10--11~---|
|----2-2-2-2-2----2-2-2-2-2----2-2-2-2-2-x-x-5-6-7-105-12~---|
|----3-3-3-3-3----3-3-3-3-3----3-3-3-3-3-x-x-5-6-7-105-12~---|
|---------------------------1~-----------x-x-3-4-5-8-3-10----|
|-1~-----------3~------------------------x-x-----------------|

Verse

Verse 2

|---------------------------|
|---------------------------|
|------------------------11-|
|-10-----1010--------x3--10-|
|-8------8-8----0--------x~-| (pick slide)
|-6-6666-6-6-5~----5~----10--|
PM  ....

Chorus 2

|-------------------5-5-5----------------------------|
|-------------5-5-5-6-6-6-3-3-3-3-3------------------|
|-7-7-7-7-7-7-5-5-5-7-7-7-3-3-3-3-3-4-4-4-4-4--------|
|-7-7-7-6-6-6-5-5-5-7-7-7-3-3-3-3-3-5-5-5-5-5--------|
|-5-5-5-7-7-7-3-3-3-5-5-5-1-1-1-1-1-5-5-5-5-5--------|
|-5-5-5-----------------------------3-3-3-3-3--------|

|---------5-----------5-|-10-10----------|
|---------6-5-3-3-3-106-|-11-11----------|
|-7-------7-6-3-3-3-107-|-12-12----------|
|-6--3----7-7-3-3-3-107-|-12-12------x4--|
|-7--3----5-7-1-1-1-8-5-|-10-10-10101010-|
|----1------5-----------|---------------|PM                              ....

Outro

|--------------------------------5--|---------------------||
|-6-6-6p5p6-6-6-6p5h6------------6--|-6~-5~-/8-6-5-6-5-5~-||
|-7-7-7-7-7-7-7-7-7-7-9-9-9h1012-7-.|-5~-5~------------7~-||
|-7-7-7-7-7-7-7-7-7-7-101010--12-7-.|------------------6~-||
|-5-5-5-5-5-5-5-5-5-5-8-8-8---10-5--|------------------7~-||
|-----------------------------------|---------------------||
Добавлено: 21.06.2012
Другие материалы по этой песне:
  • Аккорды и текст

Страница создана 21.06.2012
http://primanota.ru/hostage-calm/affidavit-chords.htm
Привет, Гость.
Предлагаем пройти революционный курс по гитаре.
Подарок от PrimaNota.Ru, забирай!