PrimaNota.ru - самый крупный в мире бесплатный архив песенных текстов, аккордов, табулатур и нот


Hospitality - Nightingale - таба, видео

Регистрация Запомнить меня
Войти через:  Facebook Google Twitter Vk Yandex Mail.ru

Hospitality - Nightingale - таба, видео

Печатать
Просмотров: 118
Уроки эстрадного вокала в Санкт-Петербурге
NIGHTINGALE
HOSPITALITY

Album: trouble (2014)


A 
If you go to sleep dear
            D 
You'll see ghosts in your bed
G
Ghosts in your bed

A
If you go to sleep here
           D
You'll see sirens and vamps
G
Sirens and vamps
F
Sirens and vamps

RIFF:

e|---------------------------------------------------------------|
B|---------------------------------------------------------------|
G|----2-------0h2--0---------------------------------------------|
D|-------0h2----------2-0--0h2p0---------------------------------|
A|-0------------------------------0--------3---5\3/5--5/7\5------|
E|------------------------------------3/5------------------------|

e|---------------------------------------------------------------|
B|---------------------------------------------------------------|
G|----2-------0h2--0---------------------------------------------|
D|-------0h2----------2-0--0h2p0---------------------------------|
A|-0------------------------------0--------3---5-3-5--5/7\5---0--|
E|------------------------------------3/5------------------------|

SYNTH+BASS:

Am - Dm7 - C - Fmaj7 (x2)

Am         Dm7         C            Fmaj7  
   By the seaside and sometimes on Saturdays
Am           Dm7          C        Fmaj7
Tawny finned fish will be bent by my hook
Am         Dm7        C              Fmaj7
   Plead a pardon my nail hit their slimy jaws
Am         Dm7         C             Fmaj7
   When I drew them I thought "you're caught"


   C                F    
My Nightingale will beat them
Dm       G
To their beds
    C               F
My Nightingale will beat them
Dm       G
To their beds

     Am
What girl
     G
What girl
     F
What girl
     Em7
What girl

Am         Dm7         C             Fmaj7  
    Former fortunes; I ask that you remember me
Am         Dm7              C     Fmaj7  
    As the greatest prince of the world
Am         Dm7         C            Fmaj7  
    By the seaside and sometimes on Saturdays
Am           Dm7          C        Fmaj7  
Tawny finned fish will be bent by my hook

   C                F    
My Nightingale will beat them
Dm       G
To their beds
    C               F
My Nightingale will beat them
Dm       G
To their beds

     Am
What girl
     G
What girl
     F
What girl
     Em7
What girl

     Am
What girl
     G
What girl
     F
What girl
     Em7
What girl

     Am
What girl
     G
What girl
     F
What girl
     Em7
What girl

OUTRO CHORDS:
F - G - Am - C/B

SYNTH RIFF:

e|------------------------------------|
B|-------8----------------------------|
G|----9----9---------7--------7-9-----|
D|--7-----------9-10---9---10-----10--|
A|------------------------------------|
E|------------------------------------|


GUITAR RIFF:
e|---------------------------------------------------------------|
B|---------------------------------------------------------------|
G|----2-------0h2--0---------------------------------------------|
D|-------0h2----------2-0--0h2p0---------------------------------|
A|-0------------------------------0--------3---5-3-5--5/7\5---0--|
E|------------------------------------3/5------------------------|


On the second repeat of the riff, the lead synth enters and plays the following 
(the guitar and backup synth basicly repeat the previous riffs until the end of the song):

e|-----------------------------------------------------------------|
B|----10-----8h10p8----------------------------------------------8-|
G|-------7h9---------9-7--7h9----------5---7\5/7--7/9\7-----7-9----|
D|-7---------------------------7--5/7-------------------7-9--------|
A|-----------------------------------------------------------------|
E|-----------------------------------------------------------------|

e|----------8------------12--10--8------------8h10p8-----------------------------------------|
B|-10-8----------10-8---------------10--8h10-----------10p8-10p8---8-------------------------|
G|-------9------------9------------------------------------------9---9p7-9p7--5/7\5----------|
D|------------------------------------------------------------------------------------7/10\7-|
A|-------------------------------------------------------------------------------------------|
E|-------------------------------------------------------------------------------------------|

e|------------------------------------------8--------12-------12-10-8------------------------|
B|-------------------------------------8-10----10p8------10p8----------10-8------------------|
G|---------------------------------7-9---------------------------------------9---------------|
D|--5-7-5-----5-7-5----5-7-5--7-10---------------------------------------------10-7----------|
A|---------7---------7-----------------------------------------------------------------------|
E|-------------------------------------------------------------------------------------------|

e|------------------------------------------|
B|----------------------------------8-10----|
G|---9-------------------7-9----7-9---------|
D|-7---10--7-------7--10-----10-------------|
A|------------10----------------------------|
E|------------------------------------------|

GUITAR OUTRO:

e|------------------------------------------------------|
B|----10-----x-8h10p8-----10-----------8h10----------1--|
G|-------7h9-----------9----------8h9-------9---9-9--2--|
D|-7--------------------------7h9--------------------3--|
A|---------------------------------------------------3--|
E|---------------------------------------------------1--|

End on F




Добавлено: 23.06.2016
Другие материалы по этой песне:
  • Аккорды и текст

Страница создана 23.06.2016
http://primanota.ru/hospitality/nightingale-chords.htm
Привет, Гость.
Предлагаем пройти революционный курс по гитаре.
Подарок от PrimaNota.Ru, забирай!