PrimaNota.ru - самый крупный в мире бесплатный архив песенных текстов, аккордов, табулатур и нот


Hosannas - Cloud - аккорды и текст, видео

Регистрация Запомнить меня
Войти через:  Facebook Google Twitter Vk Yandex Mail.ru

Hosannas - Cloud - аккорды и текст, видео

Печатать
Просмотров: 112
Cloud
Hosannas
This is a tab for the song 'Cloud' by Hosannas-https://www.facebook.com/hosannas
This isn't an exact tab, but more of a simple cover.
I'm not too great at tabbing but tried my best on them. The chords sound right to me!
Any suggestions or corrections welcome!
Hopefully someone can eventually tab more Hosannas songs, they're just too good not to.


e|-----------------------------------|
B|-----------------------------------|
G|--0----------------3---------------|
D|------3------5----------5---3--5---|
A|-----------------------------------|  
E|-----------------------------------|   Eb
    I  would  'nt  hurt  you  if  I    could

(or the chords:)

Gm                        Eb
I wouldn't hurt you if I could
                                Cm
But we both know, of course, I would
           Fm Ab
But I'd be happy
        Cm  Gm  Fm
Just to see you be

     Eb  Fm  Ab
Of course I would
 Eb     Fm     Ab
Love to be understood


e|--------------------------------------------------|
B|--------------------------------------------------|
G|--------------------------------------------------|
D|-----10----8----6-----5---------------------------|
A|-----------------------------3--------------------|
E|--------------------------------------------------|
   So what  has  this  come   too

(or the chords:)

Ab                    Cm
So what has this come too
                  Eb
And what should I do

Eb                           Cm
I haven't been myself for a while
            Fm Ab
I should be happy
        Cm  Gm   Fm
Just to see you smile

     Eb  Fm   Ab
Of course I should
 Eb     Fm     Ab
Love to be understood
   Eb       Fm   Ab
So why am I so afraid...to love
     Eb          Fm          Ab
And when will I leave this cloud?

     Ab
My cloud
    Cm
My cloud
    Gm Fm
My cloud

     Ab
My cloud
    Cm
My cloud
    Gm Fm
My cloud

     Ab
My cloud
    Cm
My cloud
    Gm Fm
My cloud


e|------------------------------------------------------|
B|------------------------------------------------------|
G|------------------------------------------------------|
D|------------------------------------------------------|
A|------------------------------------------------------|
E|-4-4-4-4-4---13-13-13---11-11-11-11-11---1-1-1--------| x4

(or the chords:)

Ab Fm(8th fret) Eb Fm *(1st fret) x4

Ab          Fm        Eb
I don't want to fall apart
                    Fm *      Ab
My mouth won't move my lips apart
             Fm          Eb
I want to call you by a name
                      Fm
But all I can say is hey!
    Eb
Hey-hey
Fm      Eb
Hey... hey

Fm Eb x2

e|----------------------|     
B|----------------------|
G|--1---3---5---10------|
D|----------------------| Eb 
A|----------------------|
E|----------------------|

e|----------------------|
B|----------------------|
G|--1---3---5---10---8--|
D|----------------------| Eb
A|----------------------|
E|----------------------|

(or the chords:)

Ab Bbm Cm Fm Eb x2

 Cm Bbm  Ab  Cm   Ab
When I leave my cloud
    Cm
My cloud
    Gm Fm
My cloud
Добавлено: 16.08.2015
Другие материалы по этой песне:
  • Аккорды и текст

Страница создана 16.08.2015
http://primanota.ru/hosannas/cloud-chords.htm
Привет, Гость.
Предлагаем пройти революционный курс по гитаре.
Подарок от PrimaNota.Ru, забирай!