PrimaNota.ru - самый крупный в мире бесплатный архив песенных текстов, аккордов, табулатур и нот


Horslips - King Of The Fairies - таба, видео

Регистрация Запомнить меня
Войти через:  Facebook Google Twitter Vk Yandex Mail.ru

Horslips - King Of The Fairies - таба, видео

Печатать
Просмотров: 235
KING OF THE FAIRIES

GUITAR TAB FOR VIOLIN

INTRO (RYTHYM GUITAR IS SIMILAR THROUGHOUT SONG)

 E5		    D5
E|-----------------|
B|-----------------|
G|-9-x-9-x-9-x-9-7-|
D|-9-x-9-x-9-x-9-7-|
A|-7-x-7-x-7-x-7-5-|
E|-0-0-0-0-0-0-0-0-|


  E5								D5 		
E|-----|----------------7-8-7-------------7-----10-------------------|
B|-----|-----7-8-7-8-10-------10-8-7-8-10--------------7-8-7---------|
G|---7-|-9-9--------------------------------9-9----9-9-------9-7---7-|
D|-9---|---------------------------------------------------------9---|
A|-----|-------------------------------------------------------------|
E|-----|-------------------------------------------------------------|

E5								D5 		E5
E|------------------7---------10--8-7---------------------------------|
B|-------7-8-7-8-10---10-7-10---------10-8-7-10-8-7-8--------{8-10-12}|
G|-9-7-9----------------------------------------------9-9-7-9---------|
D|--------------------------------------------------------------------|
A|--------------------------------------------------------------------|
E|--------------------------------------------------------------------|

REPEAT ALL OF ABOVE X 2

NOTES IN {} ARE PLAYED SECOND TIME ONLY LEADING INTO NEXT RIFF



E5								D5 		E5
E|-12-12-12-------12-14-15--17-15-14-12----12-14-12-------
B|----------12-15-----------------------15---------12-12--
G|--------------------------------------------------------
D|--------------------------------------------------------
A|--------------------------------------------------------
E|--------------------------------------------------------



E5								
E|-------9-10-12-10-9----9-10p9----|
B|-10-12--------------12--------12-|
G|---------------------------------|
D|---------------------------------|
A|---------------------------------|
E|---------------------------------|





E|-12-12-12-------12-14-15h17-15-14-12----12-15-14-12--14-12-12---12-|
B|----------12-15----------------------15-------------15-------15----|
G|-------------------------------------------------------------------|
D|-------------------------------------------------------------------|
A|-------------------------------------------------------------------|
E|-------------------------------------------------------------------|

   G5   D5  B5          D5        B5  	    E5
E|-14-15-12-14----12-------------12------------------------------------------------|
B|-------------15----15-12-14-15---15-12-------------12-14-15-12-14---12-----------| 
G|---------------------------------------14-11-12-14---------------14---14-11h12-14|
D|---------------------------------------------------------------------------------|
A|---------------------------------------------------------------------------------|
E|---------------------------------------------------------------------------------|


E|-----------------------12-14-12-10-7----7--------------------------|
B|---------7-8-7-8-10-12---------------10---10-8-7-8-7---------------|
G|---7-9-9---------------------------------------------9-7-9-9-7-9---|
D|-9-----------------------------------------------------------------|
A|-------------------------------------------------------------------|
E|-------------------------------------------------------------------|

Tabbed by DMcC
Добавлено: 29.07.2012
Другие материалы по этой песне:
  • Аккорды и текст

Страница создана 29.07.2012
http://primanota.ru/horslips/king-of-the-fairies-chords.htm
Привет, Гость.
Предлагаем пройти революционный курс по гитаре.
Подарок от PrimaNota.Ru, забирай!