PrimaNota.ru - самый крупный в мире бесплатный архив песенных текстов, аккордов, табулатур и нот


Horse The Band - The Immense Defecation Of The Bunt - таба, видео

Регистрация Запомнить меня
Войти через:  Facebook Google Twitter Vk Yandex Mail.ru

Horse The Band - The Immense Defecation Of The Bunt - таба, видео

Печатать
Просмотров: 111
As recorded by HORSE The Band
                         (From the 2003 Album R. BORLAX)

Words and Music by HORSE The Band
Arranged by HORSE The Band
Transcribed by Jonathan Rose

Gtr I (D A D G B E) - 'Keyboard'
Gtr II (D A D G B E) - 'Guitar'
Gtr III (D A D G B E) - 'Pickscrape'

 Intro
  Nintendocore Q=172
  N.C.
 4/4
  Gtr I
  E E E E E E E E   E E E E E E E E
|-3-2---2-3-2---2-|-3-2---2-3-2---2-|
|-----3-------3---|-----3-------3---|
|-----------------|-----------------|
|-----------------|-----------------|
|-----------------|-----------------|
|-----------------|-----------------|


  S S S S S S S S S S S S S S S S   S S S S S S S S S S S S S S S S
|-3-2---2-3-2---2-3-2---2-3-2---2-|-3-2---2-3-2---2-3-2---2-3-2---2--||
|-----3-------3-------3-------3---|-----3-------3-------3-------3----||
|---------------------------------|----------------------------------||
|---------------------------------|----------------------------------||
|---------------------------------|----------------------------------||
|---------------------------------|----------------------------------||


   "This suffering must.."
    F#b5
    Gtr I
     e.      e.      e    e.      e.      e
||--14------14------14---14------14------14---|
||o-13------13------13---13------13------13---|
||--11------11------11---11------11------11---|
||--------------------------------------------|
||o-------------------------------------------|
||--------------------------------------------|
|
|   Gtr II
|    S  S S  S  S S  S S  S  S S  S  S S  S S
||--------------------------------------------|
||o-------------------------------------------|
||--------------------------------------------|
||---4--4-4--4--4-4--4-4--4--4-4--4--4-4--4-4-|
||o--3--3-3--3--3-3--3-3--3--3-3--3--3-3--3-3-|
||---4--4-4--4--4-4--4-4--4--4-4--4--4-4--4-4-|


                       N.C.
   e.      e.      e   h
|-14------14------14--------------||
|-13------13------13-------------o||
|-11------11------11--------------||
|---------------------------------||
|--------------------------------o||
|---------------------------------||
|
|  S  S S  S  S S  S S E S E S E
|----------------------2-3-5-3-2--||
|--------------------------------o||
|---------------------------------||
|--4--4-4--4--4-4--4-4------------||
|--3--3-3--3--3-3--3-3-----------o||
|--4--4-4--4--4-4--4-4------------||


 "Whoever dreamed.."
  Go forth, young Link! Q=114
  D               E               F#m
 3/4
  s e e s e e e   s e e s e e e   s e e s e e e   s e e s  e e e
|-2-2-2-2-2-2-2-|-4-4-4-4-4-4-4-|-5-5-5-5-5-5-5-|-9-9-9-9-10-9-7--|
|-3-3-3-3-3-3-3-|-5-5-5-5-5-5-5-|-7-7-7-7-7-7-7-|-7-7-7-7--7-7-7--|
|---------------|---------------|---------------|-----------------|
|---------------|---------------|---------------|-----------------|
|---------------|---------------|---------------|-----------------|
|---------------|---------------|---------------|-----------------|
|
| S E E S E E E   S E E S E E E   S E E S E E E   S E E S  E E E
|---------------|---------------|---------------|-----------------|
|---------------|---------------|---------------|-----------------|
|---------------|---------------|---------------|-----------------|
|-4-4-4-4-4-4-4-|-6-6-6-6-6-6-6-|-7-7-7-7-7-7-7-|-7-7-7-7--7-7-7--|
|-0-0-0-0-0-0-0-|-2-2-2-2-2-2-2-|-4-4-4-4-4-4-4-|-4-4-4-4--4-4-4--|
|-0-0-0-0-0-0-0-|-2-2-2-2-2-2-2-|-4-4-4-4-4-4-4-|-4-4-4-4--4-4-4--|


  D       (F#m/C#)E       (C#7sus4F#m   (C#sus4)    F#m     N.C.
  s e e s e e e   s e e s e e e   s e e   s e e e   s e e s     e  e  e
|-2-2-2-2-2-2-2-|-4-4-4-4-4-4-4-|-5-5-5---5-5-5-5-|-5-5-5-5-----5--4--0-|
|-3-3-3-3-3-3-3-|-5-5-5-5-5-5-5-|-7-7-7---7-7-7-7-|-7-7-7-7-----7--7--7-|
|---------------|---------------|-----------------|---------------------|
|---------------|---------------|-----------------|---------------------|
|---------------|---------------|-----------------|---------------------|
|---------------|---------------|-----------------|---------------------|
|
|                                                                     ~~
| S E E S E E E   S E E S E E E   S E S S S E E E   S E E S  a  E  E  E
|---------5-----|---------7-----|-------9---9-----|---------10s12-14-14-|
|-----------7---|-----------7---|---------7---7---|---------------------|
|-------------6-|-------------6-|---------------6-|---------------------|
|-4-4-4-4-------|-6-6-6-6-------|-7-7-7-----------|-7-7-7-7-------------|
|-0-0-0-0-------|-2-2-2-2-------|-4-4-4-----------|-4-4-4-4-------------|
|-0-0-0-0-------|-2-2-2-2-------|-4-4-4-----------|-4-4-4-4-------------|


  D               E               F#m                     E
  s e e s e e e   s e e s e e e   s e e s e e e   s e e s e  e e
|-2-2-2-2-2-2-2-|-4-4-4-4-4-4-4-|-5-5-5-5-5-5-5-|-5-5-5-5-5--4-0-|
|-3-3-3-3-3-3-3-|-5-5-5-5-5-5-5-|-7-7-7-7-7-7-7-|-7-7-7-7-7--7-7-|
|---------------|---------------|---------------|----------------|
|---------------|---------------|---------------|----------------|
|---------------|---------------|---------------|----------------|
|---------------|---------------|---------------|----------------|
|
| S E E S E E E   S E E S E E E   S E E S E E E   S E E S Q.
|---------------|---------------|---------------|----------------|
|---------------|---------------|---------------|----------------|
|---------------|---------------|---------------|----------------|
|-4-4-4-4-4-4-4-|-6-6-6-6-6-6-6-|-7-7-7-7-7-7-7-|-7-7-7-7-6\-----|
|-0-0-0-0-0-0-0-|-2-2-2-2-2-2-2-|-4-4-4-4-4-4-4-|-4-4-4-4-2\-----|
|-0-0-0-0-0-0-0-|-2-2-2-2-2-2-2-|-4-4-4-4-4-4-4-|-4-4-4-4-2\-----|


  D       (F#m/C#)E     (C#7sus4)   F#m   (C#sus4)    F#m     N.C.
  s e e s e e e   s e e   s e e e   s e e   s e e e   s e e s     e  e  e
|-2-2-2-2-2-2-2-|-4-4-4---4-4-4-4-|-5-5-5---5-5-5-5-|-5-5-5-5-----5--4--0--||
|-3-3-3-3-3-3-3-|-5-5-5---5-5-5-5-|-7-7-7---7-7-7-7-|-7-7-7-7-----7--7--7--||
|---------------|-----------------|-----------------|----------------------||
|---------------|-----------------|-----------------|----------------------||
|---------------|-----------------|-----------------|----------------------||
|---------------|-----------------|-----------------|----------------------||
|
|                                                                       ~~
| S E E S E E E   S E S S S E E E   S E S S S E E E   S E E S  a  E  E  E
|---------5-----|-------7---7-----|-------9---9-----|---------10s12-14-14--||
|-----------7---|---------7---7---|---------7---7---|----------------------||
|-------------6-|---------------6-|---------------6-|----------------------||
|-4-4-4-4-------|-6-6-6-----------|-7-7-7-----------|-7-7-7-7--------------||
|-0-0-0-0-------|-2-2-2-----------|-4-4-4-----------|-4-4-4-4--------------||
|-0-0-0-0-------|-2-2-2-----------|-4-4-4-----------|-4-4-4-4--------------||


 "The glorious emptiness.."
  Zelda's my bitch Q=84
  N.C.
 4/4
   S  S   S   S   S   S  S  S   S   S  S  S   S   S  S  S
|--------10--11---------10-11---------10-11---------10-11-|
|----11--------------11------------11------------11-------|
|-12-------------12------------12------------12-----------|
|-------------------------------8------------12-----------|
|-10------------------------------------------------------|
|---------------------------------------------------------|
|  H                            Q             Q
|
|     >
|         ~~~~~~~~~~~~~~~~~~~~~~~~~~~~~~~~~~~~~~~
|  S  S  +E      +Q            +Q            +Q
|-14s15-(15)----(15)----------(15)----------(15)----------|
|---------------------------------------------------------|
|---------------------------------------------------------|
|---------------------------------------------------------|
|---------------------------------------------------------|
|---------------------------------------------------------|


   S  S   S   S  S   S  S  S   S   S  S  S   S   S  S  S
|--------10--11--------10-11---------10-11---------10-11--|
|----10-------------10------------10------------10--------|
|-11------------11------------11------------11------------|
|-11------------------------------------------------------|
|----------------9----------------------------------------|
|---------------------------------------------------------|
|  Q             H.
|
|         >
|         ~~~~~~~~~~~~~~~~~~~~~~~~~~~~~~~~~~~~~~
|  E     +Q.                  +Q            +Q
|-14----(14)-----------------(14)----------(14)-----------|
|---------------------------------------------------------|
|---------------------------------------------------------|
|---------------------------------------------------------|
|---------------------------------------------------------|
|---------------------------------------------------------|


  N.C.
   S S   S   S  S S  S  S   S  S  S  S    S  S  S  S
|-------10--11------10-11--------10-11---------10-11-|
|----9------------9------------9-------------9-------|
|-10-----------10----------10------------10----------|
|----------------------------------------------11----|
|--8-----------------------(8)------11---------------|
|----------------------------------------------------|
|  H                       +E.       E.         E
|
|        >
|        ~~~~~~~~~~~~~~~~~~~~~~~~~~~~~~~~~~~~
|  E    +Q.                +Q            +Q
|-13---(13)---------------(13)----------(13)---------|
|----------------------------------------------------|
|----------------------------------------------------|
|----------------------------------------------------|
|----------------------------------------------------|
|----------------------------------------------------|


   S S   S   S S  S  S  S   S  S  S  S   S  S  S  S
|-------10--11------10-11--------10-11--------10-11-|
|----8------------8------------8------------8-------|
|--9-----------9------------9------------9----------|
|-10------------------------------------------------|
|--------------7------------------------------------|
|---------------------------------------------------|
|  Q           H.
|
|        >
|        ~~~~~~~~~~~~~~~~~~~~~~~~~~~~~~~~~~~
|  E    +Q.                +Q           +Q
|-12---(12)---------------(12)---------(12)---------|
|---------------------------------------------------|
|---------------------------------------------------|
|---------------------------------------------------|
|---------------------------------------------------|
|---------------------------------------------------|


  N.C.
  S S S   S S S S  S  S  S S  S  S S  S  S
|-----8--10-----8-10-------8-10-------8-10-|
|---8---------8----------8---------8-------|
|-8---------8---------8----------8---------|
|----------------------------13------12----|
|-6-5-6--------------10--------------------|
|------------------------------------------|
| S S Q.              E.      E.      E
|
| W
|------------------------------------------|
|------------------------------------------|
|------------------------------------------|
|------------------------------------------|
|------------------------------------------|
|------------------------------------------|


  S S S  S S S S  S  S S S  S S S  S  S
|-----8-10-----8-10------8-10------8-10--|
|---8--------8---------8--------8--------|
|-7--------7---------7--------7----------|
|--------------------------12-----11-----|
|-5-4-5-------------10-------------------|
|----------------------------------------|
| S S Q.             E.     E.     E
|
| Gtr III
| TPTPTP TPTPTPTP TP TPTPTP TPTPTP TP TP
| S S S  S S S S  S  S S S  S S S  S  S
|----------------------------------------|
|----------------------------------------|
|----------------------------------------|
|----------------------------------------|
|-xSxSxS=xSxSxSxS=xS=xSxSxS=xSxSxS=xS=x\-|
|-xSxSxS=xSxSxSxS=xS=xSxSxS=xSxSxS=xS=x\-|


  N.C.
 5/8
  Gtr I
   S  S  S  S  S  S  S  S  S  S    S  S  S  S  S  S  S  S  S  S
|-------------------------------|----------14----14-17-14-17-20-||
|----------13-------13-16----13-|-16-13-16----16----------------||
|----11-14----11-14-------14----|----11-14-11-------------------||
|-10-------------10----10-13-10-|-13----------13-10-13-10-------||
|-----9-12--9-12----12----------|-------------------------12--9-||
|-12----------------------------|-------------------------------||
|  S  S  S  S  S  S  S  S  S  S    S  S  S  S  S  S  S  S  S  S
|
| Gtr II
|  S  S  S  S  S  S  S  S  S  S    S  S  S  S  S  S  S  S  S  S
|-------------------------------|----------14----14-17-14-17-20-||
|----------13-------13-16----13-|-16-13-16----16----------------||
|----11-14----11-14-------14----|-------------------------------||
|-10----------------------------|-------------------------------||
|-------------------------------|-------------------------------||
|-------------------------------|-------------------------------||


 "There is none left for.."
  G5
 4/4
   S  S  S  S  S  S  S  S  S  S  S  S  S  S  S  S
|-------10-11-------10-11-------10-11-------10-11-|
|----11----------11----------11----------11-------|
|-12----------12----------12----------12----------|
|--------------------------8----------12----------|
|-10----------------------------------------------|
|-------------------------------------------------|
|  H                       Q           Q
|
|  PM----------------------------------------------
|  S  S  E     S  S  E     S  S  E     S  S  E
|-------------------------------------------------|
|-------------------------------------------------|
|-------------------------------------------------|
|-------------------------------------------------|
|--5--5--------5--5--------5--5--------5--5-------|
|--5--5--------5--5--------5--5--------5--5-------|


  F#5
   S  S  S  S  S   S  S  S  S  S  S  S  S  S  S  S
|-------10-11--------10-11-------10-11-------10-11--|
|----10-----------10----------10----------10--------|
|-11----------11-----------11----------11-----------|
|-11------------------------------------------------|
|--------------9------------------------------------|
|---------------------------------------------------|
|  Q           H.
|
|--------------------------------------------|
|  S  S  E     S   S  E     S  S  E     S  S  E
|---------------------------------------------------|
|---------------------------------------------------|
|---------------------------------------------------|
|---------------------------------------------------|
|--4--4--------4---4--------4--4--------4--4--------|
|--4--4--------4---4--------4--4--------4--4--------|


  F5
   S S  S  S  S S  S  S  S  S  S  S   S S  S  S
|------10-11------10-11-------10-11-------10-11-|
|----9----------9-----------9-----------9-------|
|-10---------10---------10-----------10---------|
|-----------------------------------------11----|
|--8--------------------(8)------11-------------|
|-----------------------------------------------|
|  H                    +E.       E.       E
|
|  PM--------------------------------------------
|  S S  E     S S  E     S  S  E      S S  E
|-----------------------------------------------|
|-----------------------------------------------|
|-----------------------------------------------|
|-----------------------------------------------|
|--3-3--------3-3--------3--3---------3-3-------|
|--3-3--------3-3--------3--3---------3-3-------|


  E5
   S S  S  S S  S  S  S S S  S  S S S  S  S
|------10-11------10-11-----10-11-----10-11-|
|----8----------8---------8---------8-------|
|--9---------9----------9---------9---------|
|-10----------------------------------------|
|------------7------------------------------|
|-------------------------------------------|
|  Q         H.
|
|-------------------------------------|
|  S S  E    S  S  E    S S  E    S S  E
|-------------------------------------------|
|-------------------------------------------|
|-------------------------------------------|
|-------------------------------------------|
|--2-2-------2--2-------2-2-------2-2-------|
|--2-2-------2--2-------2-2-------2-2-------|


  Eb5                                   D5
  S S S   S S S S  S  S  S S  S  S S  S  S
|-----8--10-----8-10-------8-10-------8-10-|
|---8---------8----------8---------8-------|
|-8---------8---------8----------8---------|
|----------------------------13------12----|
|-6-5-6--------------10--------------------|
|------------------------------------------|
| S S Q.              E.      E.      E
|
| PM|     PM--------------------------------
| S S S   S S S S  S  S  S S  S  S S  S  S
|------------------------------------------|
|------------------------------------------|
|------------------------------------------|
|------------------------------------------|
|-1-1-----1-1-1----1--1--1----1--1-1-----0-|
|-1-1-----1-1-1----1--1--1----1--1-1-----0-|


  S S S   S S S S  S  S  S S   S  S S  S  S
|-----8--10-----8-10-------8--10-------8-10-|
|---8---------8----------8----------8-------|
|-7---------7---------7-----------7---------|
|-----------------------------12------11----|
|-5-4-5--------------10---------------------|
|-------------------------------------------|
| S S Q.              E.       E.      E
|
|------------------------|
| S S S   S S S S  S  S  S Q.
|-------------------------------------------|
|-------------------------------------------|
|-------------------------------------------|
|-------------------------------------------|
|-0-0-----0-0-0----0--0--0------------------|
|-0-0-----0-0-0----0--0--0------------------|


  N.C.
 5/8
   S  S  S  S  S  S  S  S  S  S
|-------------------------------|
|----------13-------13-16----13-|
|----11-14----11-14-------14----|
|-10-------------10----10-13-10-|
|-----9-12--9-12----12----------|
|-12----------------------------|
|  S  S  S  S  S  S  S  S  S  S
|
|  S  S  S  S  S  S  S  S  S  S
|-------------------------------|
|----------13-------13-16----13-|
|----11-14----11-14-------14----|
|-10----------------------------|
|-------------------------------|
|-------------------------------|


                                  G5
                                 6/4
   S  S  S  S  S  S  S  S  S  S    E  Q.   W
|----------14----14-17-14-17-20-|---------------*|
|-16-13-16----16----------------|---------------*|
|----11-14-11-------------------|-12-12---------*|
|-13----------13-10-13-10-------|---------------*|
|-------------------------12--9-|-10-10---------*|
|-------------------------------|---------------*|
|  S  S  S  S  S  S  S  S  S  S    E  Q.   W
|
|  S  S  S  S  S  S  S  S  S  S    E  Q.   W
|----------14----14-17-14-17-20-|---------------*|
|-16-13-16----16----------------|---------------*|
|-------------------------------|---------------*|
|-------------------------------|---------------*|
|-------------------------------|--5--5---------*|
|-------------------------------|--5--5---------*|


Duration Legend
---------------
W - whole; H - half; Q - quarter; E - 8th; S - 16th; T - 32nd; X - 64th; a - acciaccatura
+ - note tied to previous; . - note dotted; .. - note double dotted
Uncapitalized letters represent notes that are staccato (1/2 duration)
Irregular groupings are notated above the duration line
Duration letters will always appear directly above the note/fret number it represents the
duration for.  Duration letters with no fret number below them represent rests.  Multi-
bar rests are notated in the form Wxn, where n is the number of bars to rest for.  Low
melody durations appear below the staff

Tablature Legend
----------------
 h   - hammer-on
 p   - pull-off
 b   - bend
 pb  - pre-bend
 r   - bend release (if no number after the r, then release immediately)
 /\  - slide into or out of (from/to "nowhere")
 s   - legato slide
 S   - shift slide
  - natural harmonic
[n]  - artificial harmonic
n(n) - tapped harmonic
 ~   - vibrato
 tr  - trill
 T   - tap
 TP  - trem. picking
 PM  - palm muting
\n/  - tremolo bar dip; n = amount to dip
 \n  - tremolo bar down
 n/  - tremolo bar up
/n\  - tremolo bar inverted dip
 =   - hold bend; also acts as connecting device for hammers/pulls
 <>  - volume swell (louder/softer)
 x   - on rhythm slash represents muted slash
 o   - on rhythm slash represents single note slash

Misc Legend
-----------
 |  - bar
||  - double bar
||o - repeat start
o|| - repeat end
*|  - double bar (ending)
 :  - bar (freetime)
 $  - Segno
 &  - Coda
Tempo markers -  = BPM(8/16=s8/s16), where s8 = swing 8ths, s16 = swing 16ths


Добавлено: 13.07.2012
Другие материалы по этой песне:

Страница создана 31.03.2012
http://primanota.ru/horse-the-band/the-immense-defecation-of-the-bunt-chords.htm
Привет, Гость.
Предлагаем пройти революционный курс по гитаре.
Подарок от PrimaNota.Ru, забирай!