PrimaNota.ru - самый крупный в мире бесплатный архив песенных текстов, аккордов, табулатур и нот


Horse The Band - The Black Hole - текст песни, таба, видео

Регистрация Запомнить меня
Войти через:  Facebook Google Twitter Vk Yandex Mail.ru

Horse The Band - The Black Hole - текст песни, таба, видео

Печатать
Просмотров: 129
THE BLACK HOLE
As recorded by HORSE the band
(From the 2005 Album THE MECHANICAL HAND)

Transcribed by Stephen Jones
        

Words and Music by HORSE the band
Arranged by HORSE the band

Gtr I (C F A# D# G C) - 'Distorted Guitar'
Gtr II (C F A# D# G C) - 'Synthesiser'
Gtr III (C F A# D# G C) - 'Overdub Distorted'
Gtr IV (G C F A# D# G C) - 'Piano'

 Intro
  Q=140
  N.C.
 4/4
  Gtr I
   PM------------------------------------------|
   S  S  S  S  S  S  S  S  S  S  S  S  S  S  S  S
|-------------------------------------------------|
|-------------------------------------------------|
|-------------------------------------------------|
|--8--8--8----------------------------------------|
|-----------8--8--8--9--9--9--6--6--6--8--8-------|
|--------------------------------------------8--8-|
|
| Gtr II
|  s  s  s  s  s  s  s  s  s  s  s  s  s  s  s  s
|-18-18-18----------------------------------------|
|----------18-18-18-19-19-19-16-16-16-18-18-------|
|-------------------------------------------17-17-|
|-------------------------------------------------|
|-------------------------------------------------|
|-------------------------------------------------|


    A#5
                             PM--------|                            PM-----------|
      E.   S   +E    E    E  S S S S S S     E.   S   +E    E    E  S S  S  S  S  S
||---------------------------------------|------------------------------------------|
||o--------------------------------------|------------------------------------------|
||---------------------------------------|------------------------------------------|
||----8----8---(8)---8----8--------------|---8----8---(8)---8----8------------------|
||o---8----8---(8)---8----8--------------|---8----8---(8)---8----8------------------|
||----6----6---(6)---6----6--6-6-6-6-6-6-|---6----6---(6)---6----6--6-6--6--6--6--6-|
|
|     E.   S   +E    E    E  E   Q           E.   S   +E    E    E  E    S  S  S  S
||---------------------------------------|------------------------------------------|
||o-(16)-(16)-(16)-(16)-(16)-------------|-(16)-(16)-(16)-(16)-(16)-----------------|
||---18---18--(18)--18---18--------------|--18---18--(18)--18---18---------17-18-20-|
||---------------------------------------|------------------------------20----------|
||o--------------------------------------|------------------------------------------|
||---------------------------------------|------------------------------------------|


  N.C.                                      F#5
                                  PM    PM----------------------|
   H..         a  E    H     +E   E  E  E    E.  S  +E   E   E  E Q
|-------------------|---------------------|--------------------------|
|-------------------|---------------------|--------------------------|
|-10---------(10)s8-|--8-----(8)-----8----|--------------------------|
|--x----------------|--x-------------8----|--------------------------|
|--8----------(8)s6-|--6-----(6)--6-----6-|--4---4--(4)--4---4--4----|
|-------------------|---------------------|--2---2--(2)--2---2--2----|
|
|  W                   H     +E   E  E  E    E.  S  +E   E  +H
|-------------------|-18----(18)----------|--------------------------|
|-18----------------|---------------18----|--------------------------|
|-------------------|------------15----18-|-17--18-(18)--------------|
|-------------------|---------------------|-------------20-(20)------|
|-------------------|---------------------|--------------------------|
|-------------------|---------------------|--------------------------|


                                 1.
  F#5                             N.C.
    PM----------------|                            ~~~~
    E.   S   +E    E    E  E Q     H..       E     W
|-------------------------------|------------8s|==17------||
|-------------------------------|--------------|---------o||
|-------------------------------|-10-----------|----------||
|-------------------------------|--x-----------|----------||
|---4----4---(4)---4----4-------|--8-----------|---------o||
|---2----2---(2)---2----2-------|--------------|----------||
|
|   E.   S   +E    E   +H          W              +W
|-------------------------------|--------------|----------||
|--18---19--(19)----------------|-22-----------|-(22)----o||
|-----------------20--(20)------|--------------|----------||
|-(20)-(20)-(20)-(20)-(20)------|--------------|----------||
|-------------------------------|--------------|---------o||
|-------------------------------|--------------|----------||


  2.
  N.C.
   PM-----------------------------------------------------------------|
   S S S S S S S S S S S S S S S S     S  S S S S S S S S S S S S S S S
|----------------------------------|------------------------------------||
|----------------------------------|------------------------------------||
|----------------------------------|------------------------------------||
|--8-8-8---------------------------|---8--8-8---------------------------||
|--------8-8-8-9-9-9-6-6-6-8-8-----|----------8-8-8-9-9-9-6-6-6-8-8-----||
|------------------------------8-8-|--------------------------------8-8-||
|
|  W                                   W
|----------------------------------|--20--------------------------------||
|-22-------------------------------|-(22)-------------------------------||
|----------------------------------|------------------------------------||
|----------------------------------|------------------------------------||
|----------------------------------|------------------------------------||
|----------------------------------|------------------------------------||


 Pre-Chorus
  A#5
   Q.                +E       H
|----------------------------------------------------|
|----------------------------------------------------|
|----------------------------------------------------|
|--8-----------------(8)\----------------------------|
|--8-----------------(8)\----------------------------|
|--6-----------------(6)\----------------------------|
|
|  S   S  S  S  S  S  S    S  S  S  S  S  S  S  S  S
|-18-----------18------------18----------18----------|
|--------18----------18------------18----------18----|
|-----15----15----15------15----15----15----15----15-|
|----------------------------------------------------|
|----------------------------------------------------|
|----------------------------------------------------|


   Q.                +E       H
|----------------------------------------------------|
|----------------------------------------------------|
|----------------------------------------------------|
|--8-----------------(8)\----------------------------|
|--8-----------------(8)\----------------------------|
|--6-----------------(6)\----------------------------|
|
|  S   S  S  S  S  S  S    S  S  S  S  S  S  S  S  S
|-18-----------------18------------------18----------|
|--------18----18------------18----18----------18----|
|-----15----15----15------15----15----15----15----15-|
|----------------------------------------------------|
|----------------------------------------------------|
|----------------------------------------------------|


  A#5                       C#5
   Q.                +E      Q.                 +E
|-------------------------------------------------------|
|-------------------------------------------------------|
|-------------------------------------------------------|
|--8-----------------(8)s===11-----------------(11)\----|
|--8-----------------(8)s===11-----------------(11)\----|
|--6-----------------(6)s====9------------------(9)\----|
|
|  S   S  S  S  S  S  S   S  S   S  S  S  S  S   S    S
|-18-----------18-----------18-----------18-------------|
|--------18----------18------------18-----------18------|
|-----15----15----15-----15-----15----15----15-------15-|
|-------------------------------------------------------|
|-------------------------------------------------------|
|-------------------------------------------------------|


  A#5
   Q.                +E       H
|----------------------------------------------------||
|----------------------------------------------------||
|----------------------------------------------------||
|--8-----------------(8)\----------------------------||
|--8-----------------(8)\----------------------------||
|--6-----------------(6)\----------------------------||
|
|  S   S  S  S  S  S  S    S  S  S  S  S  S  S  S  S
|-18-----------------18------------------18----------||
|--------18----18------------18----18----------18----||
|-----15----15----15------15----15----15----15----15-||
|----------------------------------------------------||
|----------------------------------------------------||
|----------------------------------------------------||


 Chorus
  $
  F#5
   PM----------------------------------------------
   S  S  S  S  S  S  S  S  S  S  S  S  S  S  S  S
|-------------------------------------------------|
|-------------------------------------------------|
|-------------------------------------------------|
|-------------------------------------------------|
|--4--4--4--4--4--4--4--4--4--4--4--4--4--4--4--4-|
|--2--2--2--2--2--2--2--2--2--2--2--2--2--2--2--2-|
|
|  S  S  S  S  S  S  S  S  S  S  S  S  S  S  S  S
|-18----------18----------18----------18----------|
|-------18----------18----------18----------18----|
|----15----15----15----15----15----15----15----15-|
|-------------------------------------------------|
|-------------------------------------------------|
|-------------------------------------------------|


  A#5
 ----------------------------------------------|
   S  S  S  S  S  S  S  S  S  S  S  S  S  S  S  S
|-------------------------------------------------|
|-------------------------------------------------|
|-------------------------------------------------|
|-------------------------------------------------|
|--8--8--8--8--8--8--8--8--8--8--8--8--8--8--8--8-|
|--6--6--6--6--6--6--6--6--6--6--6--6--6--6--6--6-|
|
|  S  S  S  S  S  S  S  S  S  S  S  S  S  S  S  S
|-18----------------18----------------18----------|
|-------18----18----------18----18----------18----|
|----15----15----15----15----15----15----15----15-|
|-------------------------------------------------|
|-------------------------------------------------|
|-------------------------------------------------|


  F#5
   PM----------------------------------------------
   S  S  S  S  S  S  S  S  S  S  S  S  S  S  S  S
|-------------------------------------------------|
|-------------------------------------------------|
|-------------------------------------------------|
|-------------------------------------------------|
|--4--4--4--4--4--4--4--4--4--4--4--4--4--4--4--4-|
|--2--2--2--2--2--2--2--2--2--2--2--2--2--2--2--2-|
|
|  S  S  S  S  S  S  S  S  S  S  S  S  S  S  S  S
|-18----------18----------18----------18----------|
|-------18----------18----------18----------18----|
|----15----15----15----15----15----15----15----15-|
|-------------------------------------------------|
|-------------------------------------------------|
|-------------------------------------------------|


  A#5
 ----------------------------------------------|
   S  S  S  S  S  S  S  S  S  S  S  S  S  S  S  S
|-------------------------------------------------|
|-------------------------------------------------|
|-------------------------------------------------|
|-------------------------------------------------|
|--8--8--8--8--8--8--8--8--6--6--6--6--6--6--6--6-|
|--6--6--6--6--6--6--6--6--4--4--4--4--4--4--4--4-|
|
|  S  S  S  S  S  S  S  S  S  S  S  S  S  S  S  S
|-18----------------18----------------18----------|
|-------18----18----------18----18----------18----|
|----15----15----15----15----15----15----15----15-|
|-------------------------------------------------|
|-------------------------------------------------|
|-------------------------------------------------|


  F#5         A#5   F#5   A#5   F#5   A#5   F#5
   PM------|
   S  S  S  S  E     E     E     E     E     E
|-------------------------------------------------|
|-------------------------------------------------|
|-------------------------------------------------|
|--------------3-----------3-----------3----------|
|--4--4--4--4--1-----4-----1-----4-----1-----4----|
|--2--2--2--2--------2-----------2-----------2----|
|
|  S  S  S  S  S  S  S  S  S  S  S  S  S  S  S  S
|-18----------18----------18----------18----------|
|-------18----------18----------18----------18----|
|----15----15----15----15----15----15----15----15-|
|-------------------------------------------------|
|-------------------------------------------------|
|-------------------------------------------------|


  N.C.
    S  S  S  S  S  S  S  S  S  S  S  S  S  S  S  S
|--------------------------------------------------|
|-/11-11-11-11-11-11-11-11-11-11-11-11-11-11-11-11-|
|---x--x--x--x--x--x--x--x--x--x--x--x--x--x--x--x-|
|--/8--8--8--8--8--8--8--8--8--8--8--8--8--8--8--8-|
|--------------------------------------------------|
|--------------------------------------------------|
|
|   S  S  S  S  S  S  S  S  S  S  S  S  S  S  S  S
|--18----------------18----------------18----------|
|--------18----18----------18----18----------18----|
|-----15----15----15----15----15----15----15----15-|
|--------------------------------------------------|
|--------------------------------------------------|
|--------------------------------------------------|


  F#5         A#5   F#5   A#5   F#5   A#5   F#5
   PM------|
   S  S  S  S  E     E     E     E     E     E
|-------------------------------------------------|
|-------------------------------------------------|
|-------------------------------------------------|
|--------------3-----------3-----------3----------|
|--4--4--4--4--1-----4-----1-----4-----1-----4----|
|--2--2--2--2--------2-----------2-----------2----|
|
|  S  S  S  S  S  S  S  S  S  S  S  S  S  S  S  S
|-18----------18----------18----------18----------|
|-------18----------18----------18----------18----|
|----15----15----15----15----15----15----15----15-|
|-------------------------------------------------|
|-------------------------------------------------|
|-------------------------------------------------|


                                         To Coda
  N.C.
    S  S  S  S  S  S  S  S  S  S  S  S  S  S  S  S
|--------------------------------------------------||
|-/11-11-11-11-11-11-11-11--9--9--9--9--9--9--9--9-||
|---x--x--x--x--x--x--x--x--x--x--x--x--x--x--x--x-||
|--/8--8--8--8--8--8--8--8--6--6--6--6--6--6--6--6-||
|--------------------------------------------------||
|--------------------------------------------------||
|
|   S  S  S  S  S  S  S  S  S  S  S  S  S  S  S  S
|--18----------------18----------------18----------||
|--------18----18----------18----18----------18----||
|-----15----15----15----15----15----15----15----15-||
|--------------------------------------------------||
|--------------------------------------------------||
|--------------------------------------------------||


   Verse
    N.C.
     <                        >
     H                       +H
||----------------------------------------------------|
||o---------------------------------------------------|
||----------------------------------------------------|
||--10----------------------(10)----------------------|
||o---------------------------------------------------|
||----------------------------------------------------|
|
|    S  S  S  S  S  S  S  S   S   S  S  S  S  S  S  S
||----------------------------------------------------|
||o---------------------------------------------------|
||--13----12----10----12-----13-----12----10----12----|
||-----10----10----10----10------10----10----10----10-|
||o---------------------------------------------------|
||----------------------------------------------------|


   <                       >
   H                      +H                        8x
|---------------------------------------------------||
|--------------------------------------------------o||
|---------------------------------------------------||
|--8----------------------(8)-----------------------||
|--------------------------------------------------o||
|---------------------------------------------------||
|
|  S  S  S  S  S  S  S  S  S   S  S  S  S  S  S  S  8x
|---------------------------------------------------||
|--------------------------------------------------o||
|-13----12----10----12----13-----12----10----12-----||
|----10----10----10----10-----10----10----10----10--||
|--------------------------------------------------o||
|---------------------------------------------------||


 Awesome Breakdown
  F5
 2/4      4/4
  H        E Q   S S E E E E   E Q   E H
|------||--------------------|-----------------|
|------||o-------------------|-----------------|
|------||--------------------|-----------------|
|-3----||--------------------|-----------------|
|-3----||o-3-----3-3-3---3---|-3-----3---------|
|-1----||--1-----1-1-1---1---|-1-----1---------|
|
| W        E E E E   E E E E   Q   E E E E E E
|------||------2-------3---4-|-----5-----6-6-6-|
|------||o---6---6---7---7-7-|-----8-----5-5-5-|
|------||--------------------|-----------------|
|------||--------------------|-----------------|
|------||o-------------------|-----------------|
|------||--------------------|-----------------|


  F5
  E Q   S S E E E E   E Q   S S E E Q
|-------------------|--------------------||-|
|-------------------|-------------------o||-|
|-------------------|--------------------||-|
|-------------------|--------------------||-|
|-3-----3-3-3---3---|-3-----3-3-3-------o||-|
|-1-----1-1-1---1---|-1-----1-1-1--------||-|
|
| E E E E   E E E E   Q   E E   E E E E
|-----2-------3---4-|-----5-------6-6-6--||-|
|---6---6---7---7-7-|-----8-------5-5-5-o||-|
|-------------------|--------------------||-|
|-------------------|--------------------||-|
|-------------------|-------------------o||-|
|-------------------|--------------------||-|


  N.C.
   W                       W
|-----------------------|-----------------------||
|-----------------------|-----------------------||
|-----------------------|-----------------------||
|-----------------------|-----------------------||
|-----------------------|-----------------------||
|-----------------------|-----------------------||
|
|  e  e  E E  e  E E  e    E E  e  E E  e  e  e
|-13-13-13---13-13---13-|-13---13-13---13-13-13-||
|-----------------------|-----------------------||
|-----------------------|-----------------------||
|-----------------------|-----------------------||
|-----------------------|-----------------------||
|-----------------------|-----------------------||


 Interlude
  Q=180
  N.C.
   ~~                   ~~
   H       +E   E Q     H       +E   E Q
|--------------------|--------------------|
|-/6-------(6)\------|-/6-------(6)\------|
|--------------------|--------------------|
|--------------------|--------------------|
|--------------------|--------------------|
|--------------------|--------------------|
|
|  E Q   E  H           E Q   E  H
|-20----16-----------|-20----16-----------|
|-18----18-----------|-18----18-----------|
|--------------------|--------------------|
|--------------------|--------------------|
|--------------------|--------------------|
|--------------------|--------------------|


   ~~                   ~~
   H       +E   E Q     H       +E   E Q
|--------------------|---------------------|
|-/6-------(6)\------|-/9-------(9)\-------|
|--------------------|---------------------|
|--------------------|---------------------|
|--------------------|---------------------|
|--------------------|---------------------|
|
|  E Q   E  H           E Q   E  H
|-18----15-----------|-16----13------------|
|-16----16-----------|-15----15------------|
|--------------------|---------------------|
|--------------------|---------------------|
|--------------------|---------------------|
|--------------------|---------------------|


  N.C.
   ~~
   H       +E   E Q     E  E  E  E H
|--------------------|-13-------------------|
|-/6-------(6)\------|----13----------------|
|--------------------|-------13-------------|
|--------------------|----------15----------|
|--------------------|----------------------|
|--------------------|----------------------|
|
|  E Q   E  H           E  Q     E Q   E  E
|-20----16-----------|-20-------16----20-23-|
|-18----18-----------|-18-------18----------|
|--------------------|----------------------|
|--------------------|----------------------|
|--------------------|----------------------|
|--------------------|----------------------|


   ~~
   H       +E   E  E E    H.       +E   E
|-----------------19---|-20-------(20)\----|
|-/6-------(6)\--------|-------------------|
|----------------------|-------------------|
|----------------------|-------------------|
|----------------------|-------------------|
|----------------------|-------------------|
|
|  E Q   E  Q      E E    W
|-22--------------19---|-20----------------|
|-------23-------------|-------------------|
|----------------------|-------------------|
|----------------------|-------------------|
|----------------------|-------------------|
|----------------------|-------------------|


    N.C.
     E   E  E  E  E  E  E  E     E    E  E  E  E  E  E  E
||---------------------------|----------------------------|
||o-14-----------14-------17-|-------14----------14-------|
||------14-13-------14-------|--16------16-14-------16-14-|
||------------16-------16----|----------------------------|
||o--------------------------|----------------17----------|
||---------------------------|----------------------------|
|
|    H.                 E  E    +H..                    E
||--21--------------------21-|-(21)-----------------------|
||o-22--------------------21-|-(21)-----------------------|
||---------------------------|----------------------------|
||---------------------------|----------------------------|
||o--------------------------|----------------------------|
||---------------------------|----------------------------|


   E   E  E  E  E  E  E  E     E    E  E  E  E  E  E  E
|--------------------------|-----------------------------||
|-14-----------14-------17-|-------14----------14-------o||
|-----14-13-------14-------|--16------16-14-------16-14--||
|-----------16-------16----|-----------------------------||
|--------------------------|----------------17----------o||
|--------------------------|-----------------------------||
|
|  H.                 E  E    +H..                    E
|-19--------------------17-|-(17)------------------------||
|-21--------------------19-|-(19)-----------------------o||
|--------------------------|-----------------------------||
|--------------------------|-----------------------------||
|--------------------------|----------------------------o||
|--------------------------|-----------------------------||


  N.C.
   E   E  E  E  E  E  E  E     E    E  E  E  E  E  E  E
|-14-----------14-------17-|-------14----------14-------|
|-----15-14-------15-------|--17------17-14-------14----|
|--------------------------|----------------------------|
|-----------16-------16----|----------------16-------16-|
|--------------------------|----------------------------|
|--------------------------|----------------------------|
|
|  H.                 E  E    +H..                    E
|-21--------------------21-|-(21)-----------------------|
|-19--------------------19-|-(19)-----------------------|
|--------------------------|----------------------------|
|--------------------------|----------------------------|
|--------------------------|----------------------------|
|--------------------------|----------------------------|


   E   E  E  E  E  E  E  E     E    E  E  E  E  E  E  E
|-14-----------14-------17-|-------14----------14--------|
|-----15-14-------15-------|--17------17-14-------14-----|
|--------------------------|-----------------------------|
|-----------16-------16----|----------------16-------16--|
|--------------------------|-----------------------------|
|--------------------------|-----------------------------|
|
|  H.                 E  E    +H..                    E
|-21--------------------21-|-(21)------------------------|
|-19--------------------19-|-(19)------------------------|
|--------------------------|-----------------------------|
|--------------------------|-----------------------------|
|--------------------------|-----------------------------|
|--------------------------|-----------------------------|


  N.C.
   E  E  E  E E  E  E  E    E  E  E  E  E  E  E  E
|-13------------------13-|-13----------------------|
|----13------------13----|----13-------------13----|
|-------13------13-------|-------13----12h13----10-|
|----------15------------|----------15-------------|
|------------------------|-------------------------|
|------------------------|-------------------------|
|
|  E  Q     E H             E  Q     E  H
|-20-------16------------|-20-------16-------------|
|-18-------18------------|-18-------18-------------|
|------------------------|-------------------------|
|------------------------|-------------------------|
|------------------------|-------------------------|
|------------------------|-------------------------|


   E E E  E E  E E E    E E E  E  E E E E
|--8---------------8-|--8-------------8----|
|----9-8---------9---|----9-8-------9---8--|
|--------------------|-----------10--------|
|--------10---10-----|--------10-----------|
|--------------------|---------------------|
|--------------------|---------------------|
|
|  E Q    E H           E Q    E  H
|-18-----15----------|-16-----13-----------|
|-16-----16----------|-15-----15-----------|
|--------------------|---------------------|
|--------------------|---------------------|
|--------------------|---------------------|
|--------------------|---------------------|


  N.C.
   E  E  E  E E  E  E  E    E  E  E  E  E  E  E  E
|-13------------------13-|-13----------------15----|
|----13------------13----|----13----------16----16-|
|-------13------13-------|-------13----------------|
|----------15------------|----------15-17----------|
|------------------------|-------------------------|
|------------------------|-------------------------|
|
|  E  Q     E H             E  Q     E  Q     E  E
|-20-------16------------|-20-------16-------20-23-|
|-18-------18------------|-18-------18-------------|
|------------------------|-------------------------|
|------------------------|-------------------------|
|------------------------|-------------------------|
|------------------------|-------------------------|


   E  E  E  E E  E  E  E    E  E  E  E E  Q   E
|-15------------------15-|-13--------------------|
|----16-15------15-16----|----13-----------------|
|----------15------------|-------13--------------|
|------------------------|----------15---15\-----|
|------------------------|-----------------------|
|------------------------|-----------------------|
|
|  E  Q     E Q     E  E    W
|-22---------------18----|-20--------------------|
|----------23------20----|-20--------------------|
|------------------------|-----------------------|
|------------------------|-----------------------|
|------------------------|-----------------------|
|------------------------|-----------------------|


    N.C.
     E   E  E  E  E  E  E  E     E    E  E  E  E  E  E  E
||---------------------------|----------------------------|
||o-14-----------14-------17-|-------14----------14-------|
||------14-13-------14-------|--16------16-14-------16-14-|
||------------16-------16----|----------------------------|
||o--------------------------|----------------17----------|
||---------------------------|----------------------------|
|
|    H.                 E  E    +H..                    E
||--21--------------------21-|-(21)-----------------------|
||o-22--------------------21-|-(21)-----------------------|
||---------------------------|----------------------------|
||---------------------------|----------------------------|
||o--------------------------|----------------------------|
||---------------------------|----------------------------|


   E   E  E  E  E  E  E  E     E    E  E  E  E  E  E  E
|--------------------------|-----------------------------||
|-14-----------14-------17-|-------14----------14-------o||
|-----14-13-------14-------|--16------16-14-------16-14--||
|-----------16-------16----|-----------------------------||
|--------------------------|----------------17----------o||
|--------------------------|-----------------------------||
|
|  H.                 E  E    +H..                    E
|-19--------------------17-|-(17)------------------------||
|-21--------------------19-|-(19)-----------------------o||
|--------------------------|-----------------------------||
|--------------------------|-----------------------------||
|--------------------------|----------------------------o||
|--------------------------|-----------------------------||


  N.C.
   E   E  E  E  E  E  E  E     E    E  E  E  E  E  E  E
|-14-----------14-------17-|-------14----------14-------|
|-----15-14-------15-------|--17------17-14-------14----|
|--------------------------|----------------------------|
|-----------16-------16----|----------------16-------16-|
|--------------------------|----------------------------|
|--------------------------|----------------------------|
|
|  H.                 E  E    +H..                    E
|-21--------------------21-|-(21)-----------------------|
|-19--------------------19-|-(19)-----------------------|
|--------------------------|----------------------------|
|--------------------------|----------------------------|
|--------------------------|----------------------------|
|--------------------------|----------------------------|
|
| Gtr III
|  PM----------------------------------------------------
|  E   E  E  E  E  E  E  E     E    E  E  E  E  E  E  E
|--------------------------|----------------------------|
|--------------------------|----------------------------|
|-11-----------11-------14-|-------11----------11-------|
|-----12-11-------12-------|--14------14-11-------11----|
|--------------------------|----------------------------|
|-----------14-------14----|----------------14-------14-|


   E   E  E  E  E  E  E  E     E   E  E  E  E  E  E  E
|-14-----------14-------17-|------14----------14--------||
|-----15-14-------15-------|--17-----17-14-------14-----||
|--------------------------|----------------------------||
|-----------16-------16----|---------------16-------16--||
|--------------------------|----------------------------||
|--------------------------|----------------------------||
|
|  H.                 E  E    +W
|-21--------------------21-|-(21)-----------------------||
|-19--------------------19-|-(19)-----------------------||
|--------------------------|----------------------------||
|--------------------------|----------------------------||
|--------------------------|----------------------------||
|--------------------------|----------------------------||
|
|---------------------------------------------------|
|  E   E  E  E  E  E  E  E     E   E  E  E  E  E  E  E
|--------------------------|----------------------------||
|--------------------------|----------------------------||
|-11-----------11-------14-|------11----------11--------||
|-----12-11-------12-------|--14-----14-11-------11-----||
|--------------------------|----------------------------||
|-----------14-------14----|---------------14-------14--||


   Verse
    N.C.
     PM--|   PM             PM--|   PM
     E E E E E E Q      Q   E E E E E E
||------------------|-------------------|
||o-----------------|-------------------|
||---------8--------|-------------8-----|
||------------------|-------------------|
||o--6-6-6---6------|-------6-6-6---6---|
||------------------|-------------------|
|
|    W                 +W
||--21--------------|-(21)--------------|
||o-19--------------|-(19)--------------|
||------------------|-------------------|
||------------------|-------------------|
||o-----------------|-------------------|
||------------------|-------------------|


            PM--|              PM--|     PM
    E  E Q  E E   E  E     Q   E E E E   E    E
|----------------------|--------------------------|
|----------------------|--------------------------|
|--------------------8-|-------------8------------|
|---8------------------|--------------------------|
|------6----6-6---6----|-------6-6-6-----6--------|
|----------------------|--------------------------|
|
|   H.            Q       +H.            E    E
|--18------------21----|-(21)-----------21---23---|
|-(19)----------(19)---|-(19)----------(19)-(19)--|
|----------------------|--------------------------|
|----------------------|--------------------------|
|----------------------|--------------------------|
|----------------------|--------------------------|


  N.C.
   E E E E E E Q      Q   E E E E  Q
|-----------------|-------------------|
|-----------------|-------------------|
|-----------------|-------------------|
|--------9--------|-----------9-------|
|------9----------|-------------------|
|--6h7-----7------|-------7-----7-----|
|
|  W                 +H.           Q
|-21--------------|-(21)----------19--|
|-19--------------|-(19)----------19--|
|-----------------|-------------------|
|-----------------|-------------------|
|-----------------|-------------------|
|-----------------|-------------------|


 1.
   Q  E E E E E E     Q    E E E E E   E
|-----------------|------------------------||
|-----------------|-----------------------o||
|-----------------|------------------------||
|-----------9-----|--------------9---------||
|---------9-------|-----------------------o||
|-----6h7-----7---|--------7-------7-------||
|
|  W                 +H..              E
|-18--------------|-(18)--------------19---||
|-19--------------|-(19)-------------(19)-o||
|-----------------|------------------------||
|-----------------|------------------------||
|-----------------|-----------------------o||
|-----------------|------------------------||


  2.
  N.C.
   Q  E E E E E E     Q   E E E E Q
|-----------------|------------------|
|-----------------|------------------|
|-----------------|------------------|
|-----------9-----|-------------9----|
|---------9-------|------------------|
|-----6h7-----7---|-------7----------|
|
|  W                 +W
|-18--------------|-(18)-------------|
|-19--------------|-(19)-------------|
|-----------------|------------------|
|-----------------|------------------|
|-----------------|------------------|
|-----------------|------------------|


   Post Verse
    W                       W
||------------------------|------------------------|
||o-----------------------|------------------------|
||------------------------|------------------------|
||------------------------|------------------------|
||o-----------------------|------------------------|
||------------------------|------------------------|
|
|   E  E  E  E E  E  E  E   E  E  E  E E  E  E  E
||----------13---------13-|---------13---------13--|
||o------11---------11----|------11---------11-----|
||----10---------10-------|---10---------10--------|
||--8----------8----------|-8----------8-----------|
||o-----------------------|------------------------|
||------------------------|------------------------|


                         1.
  N.C.
  Gtr II
  E  E  E  E E  E  E  E   E  E  E  E E  E  E  E
|---------14---------14-|---------11---------11--||
|------11---------11----|------11---------11----o||
|---10---------10-------|---10---------10--------||
|-8----------8----------|-8----------8-----------||
|-----------------------|-----------------------o||
|-----------------------|------------------------||


   2.
    E  E  E  E E  E  E  E   E E  E  E E E  E  E
|-|---------11------------|--------13--------13--|
|-|------11---------11----|-----10--------10-----|
|-|---10---------10----10-|---9---------9--------|
|-|-8----------8----------|-7---------7----------|
|-|-----------------------|----------------------|
|-|-----------------------|----------------------|


  N.C.
  E E  E  E E E  E  E   E E  E  E E E  E  E
|--------13--------13-|--------14--------14-|
|-----10--------10----|-----10--------10----|
|---9---------9-------|---9---------9-------|
|-7---------7---------|-7---------7---------|
|---------------------|---------------------|
|---------------------|---------------------|


  E E  E  E E E  E  E   E E E E E E E E
|--------11--------11-|-------9-------9-|
|-----10--------10----|-----9-------9---|
|---9---------9-------|---6-------6-----|
|-7---------7---------|-4-------4-------|
|---------------------|-----------------|
|---------------------|-----------------|


  N.C.                                                    G#5
  Gtr I
  W                 W                     H..             E
|-----------------|---------------------|-------------------||
|-----------------|---------------------|-------------------||
|-----------------|---------------------|-------------------||
|-----------------|---------------------|-----------------6-||
|-----------------|---------------------|-----------------6-||
|-----------------|---------------------|-----------------4-||
|
| Gtr II
| E E E E E E E E   E E  E  E E E  E  E   E   E E E E E E E
|-------9-------9-|--------11--------11-|---------8-------8-||
|-----9-------9---|-----11--------11----|-------8-------8---||
|---6-------6-----|---8---------8-------|-----5-------5-----||
|-4-------4-------|-6---------6---------|-3---------3-------||
|-----------------|---------------------|-------------------||
|-----------------|---------------------|-------------------||


 Breakdown
  Q=70
  A#5                                                                                        G#5
   E          +E             Q                       Q..                                     S
|----------------------------------------------------------------------------------------------|
|----------------------------------------------------------------------------------------------|
|----------------------------------------------------------------------------------------------|
|--8----------(8)\---------------------------------------------------------------------------6-|
|--8----------(8)\---------------------------------------------------------------------------6-|
|--6----------(6)\---------------------------------------------------------------------------4-|
|
|  T  T  T  T  T    T  T  T  T  T  T  T  T  T  T  T  T    T  T  T  T  T  T  T  T  T  T  T  E
|-18----18----18------18----18----18----18----18----18------18----18----18----18----18----18---|
|----18----18------18----18----18----18----18----18------18----18----18----18----18----18------|
|----------------------------------------------------------------------------------------------|
|----------------------------------------------------------------------------------------------|
|----------------------------------------------------------------------------------------------|
|----------------------------------------------------------------------------------------------|


  A#b5                                                                             G#5
  E +E             Q                       Q..                                     S
|---------------------------------------------------------------------------------------|
|---------------------------------------------------------------------------------------|
|---------------------------------------------------------------------------------------|
|-8-(8)\---------------------------------------------------------------------------6----|
|-7-(7)\---------------------------------------------------------------------------6----|
|-6-(6)\---------------------------------------------------------------------------4----|
|
| E  T    T  T  T  T  T  T  T  T  T  T  T  T    T  T  T  T  T  T  T  T  T  T  T  E
|---18------18----18----18----18----18----18------18----18----18----18----18----18------|
|--------19----19----19----19----19----19------19----19----19----19----19----19---------|
|---------------------------------------------------------------------------------------|
|---------------------------------------------------------------------------------------|
|---------------------------------------------------------------------------------------|
|---------------------------------------------------------------------------------------|


  A#5                                                                              G#5
  E +E             Q                       Q..                                     S
|------------------------------------------------------------------------------------|
|------------------------------------------------------------------------------------|
|------------------------------------------------------------------------------------|
|-8-(8)\---------------------------------------------------------------------------6-|
|-8-(8)\---------------------------------------------------------------------------6-|
|-6-(6)\---------------------------------------------------------------------------4-|
|
| E  T    T  T  T  T  T  T  T  T  T  T  T  T    T  T  T  T  T  T  T  T  T  T  T  E
|---18------18----18----18----18----18----18------18----18----18----18----18----18---|
|--------18----18----18----18----18----18------18----18----18----18----18----18------|
|------------------------------------------------------------------------------------|
|------------------------------------------------------------------------------------|
|------------------------------------------------------------------------------------|
|------------------------------------------------------------------------------------|


  A#b5                                                                             G#5
  E +E             Q                       Q..                                     S
|-------------------------------------------------------------------------------------|
|-------------------------------------------------------------------------------------|
|-------------------------------------------------------------------------------------|
|-8-(8)\---------------------------------------------------------------------------6--|
|-7-(7)\---------------------------------------------------------------------------6--|
|-6-(6)\---------------------------------------------------------------------------4--|
|
| E  T    T  T  T  T  T  T  T  T  T  T  T  T    T  T  T  T  T  T  T  T  T  T  T  E
|---18------18----18----18----18----18----18------18----18----18----18----18----18----|
|--------19----19----19----19----19----19------19----19----19----19----19----19-------|
|-------------------------------------------------------------------------------------|
|-------------------------------------------------------------------------------------|
|-------------------------------------------------------------------------------------|
|-------------------------------------------------------------------------------------|


    A#5                                                                            G#5
    E +E             T  T  T  T  T  T  T  T  T  T  T  T  T  T  T  T  T  T  T  T  S S
||-----------------------------------------------------------------------------------|
||o----------------------------------------------------------------------------------|
||------------------10-10-10-10-10-10-10-10-10-10-10-10-10-10-10-10-10-10-10-10-10---|
||--8-(8)\-------------------------------------------------------------------------6-|
||o-8-(8)\-------------------------------------------------------------------------6-|
||--6-(6)\-------------------------------------------------------------------------4-|
|
|   E  T    T  T  T  T  T  T  T  T  T  T  T  T  T  T  T  T  T  T  T  T  T  T  T  E
||----18------18----18----18----18----18----18----18----18----18----18----18----18---|
||o--------18----18----18----18----18----18----18----18----18----18----18----18------|
||-----------------------------------------------------------------------------------|
||-----------------------------------------------------------------------------------|
||o----------------------------------------------------------------------------------|
||-----------------------------------------------------------------------------------|


  A#b5                                                                           G#5
  E +E             T  T  T  T  T  T  T  T  T  T  T  T  T  T  T  T  T  T  T  T  S S
|-----------------------------------------------------------------------------------||
|----------------------------------------------------------------------------------o||
|------------------9--9--9--9--9--9--9--9--9--9--9--9--9--9--9--9--9--9--9--9--9----||
|-8-(8)\-------------------------------------------------------------------------6--||
|-7-(7)\-------------------------------------------------------------------------6-o||
|-6-(6)\-------------------------------------------------------------------------4--||
|
| E  T    T  T  T  T  T  T  T  T  T  T  T  T  T  T  T  T  T  T  T  T  T  T  T  E
|---18------18----18----18----18----18----18----18----18----18----18----18----18----||
|--------19----19----19----19----19----19----19----19----19----19----19----19------o||
|-----------------------------------------------------------------------------------||
|-----------------------------------------------------------------------------------||
|----------------------------------------------------------------------------------o||
|-----------------------------------------------------------------------------------||


              Outro
               Q.=60
D.S. al Coda&
  A#5          N.C.
 2/4          6/8
                                     ~~~~
  E +E   Q     W          E   E  E   Q    +E
|-----------||--------|------------------------|
|-----------||--------|---------11-------------|
|-----------||--------|-------------10---(10)\-|
|-8-(8)\----||--------|------12----------------|
|-8-(8)\----||--------|-/13--------------------|
|-6-(6)\----||--------|------------------------|
|
| W            W          Q.         Q.
|-----------||--------|--10----------8---------|
|-----------||--------|--11--------(11)--------|
|-----------||--------|------------------------|
|-----------||--------|------------------------|
|-----------||--------|------------------------|
|-----------||--------|------------------------|


  A#5
    PM------------------------------------|
    S  S   S  S   S  S   S  S   S  S   S  S
|-------------------------------------------|
|-------------------------------------------|
|-------------------------------------------|
|-------------------------------------------|
|---8--8---8--8---8--8---8--8---8--8---8--8-|
|---6--6---6--6---6--6---6--6---6--6---6--6-|
|
|  +E      E      E      E      E      E
|--(8)----10------8-----10-----11------8----|
|-(11)---(11)---(11)---(11)---(11)---(11)---|
|-------------------------------------------|
|-------------------------------------------|
|-------------------------------------------|
|-------------------------------------------|


  N.C.                    G#5
              ~~~~          PM------------------------------------|
    E  E  E   Q    +E       S  S   S  S   S  S   S  S   S  S   S  S
|-----------------------|-------------------------------------------|
|------9----------------|-------------------------------------------|
|--------10-------------|-------------------------------------------|
|-/10-------------------|-------------------------------------------|
|------------11---(11)\-|---6--6---6--6---6--6---6--6---6--6---6--6-|
|-----------------------|---4--4---4--4---4--4---4--4---4--4---4--4-|
|
|   Q.        Q.           +E      E      E      E      E      E
|--10---------8---------|--(8)----10------8-----10-----11------8----|
|--11-------(11)--------|-(11)---(11)---(11)---(11)---(11)---(11)---|
|-----------------------|-------------------------------------------|
|-----------------------|-------------------------------------------|
|-----------------------|-------------------------------------------|
|-----------------------|-------------------------------------------|


  N.C.                          F#5
                                  PM-------------------------------|
   E   E  E  E.  +S      +E       S   S  S  S  S  S  S  S  S  S  S  S
|-----------------------------|---------------------------------------|
|-----------13--(13)b14r(13)\-|---------------------------------------|
|--------10-------------------|---------------------------------------|
|-----11----------------------|---------------------------------------|
|-/9--------------------------|---4---4--4--4--4--4--4--4--4--4--4--4-|
|-----------------------------|---2---2--2--2--2--2--2--2--2--2--2--2-|
|
|  Q.        Q.                  +S   S  S  S  S  S  S  S  S  S  S  S
|-13--------------------------|---------13-------------13-------------|
|-----------------------------|------13-------11-13-------13----11-13-|
|-----------10----------------|-(10)-------10-------10-------10-------|
|-----------------------------|---------------------------------------|
|-----------------------------|---------------------------------------|
|-----------------------------|---------------------------------------|


  N.C.
   Q.              Q.
|---------------------------------|
|---------------------------------|
|-10--------------10--------------|
|--x---------------x--------------|
|--8---------------8--------------|
|---------------------------------|
|
|  S   S  S  S  E  S   S  S  S  E
|--------17-18-22--------17-18-22-|
|-----18--------------18----------|
|---------------------------------|
|-15--------------15--------------|
|---------------------------------|
|---------------------------------|


                   ~~                              ~~~~
   Q            E  Q           +E       E   E  E   Q    +E
|-----------------17----------(17)\-|------------------------|
|-----------------------------------|---------11-------------|
|-10----------/17-------------------|-------------10---(10)\-|
|--x--------------------------------|------12----------------|
|--8--------------------------------|-/13--------------------|
|-----------------------------------|------------------------|
|
|  S  S  S  S   E  S  S  S  S   E       Q.         Q.
|-------17-18--20-------17-18--20---|--10----------8---------|
|----18--------------18-------------|--11--------(11)--------|
|-----------------------------------|------------------------|
|-15--------------15----------------|------------------------|
|-----------------------------------|------------------------|
|-----------------------------------|------------------------|


  A#5
    PM---------------------------------------
    S  S   S  S   S  S   S  S   S  S   S  S
|-------------------------------------------|
|-------------------------------------------|
|-------------------------------------------|
|-------------------------------------------|
|---8--8---8--8---8--8---8--8---8--8---8--8-|
|---6--6---6--6---6--6---6--6---6--6---6--6-|
|
|  +E      E      E      E      E      E
|--(8)----10------8-----10-----11------8----|
|-(11)---(11)---(11)---(11)---(11)---(11)---|
|-------------------------------------------|
|-------------------------------------------|
|-------------------------------------------|
|-------------------------------------------|


  N.C.                                   G#5
 --------------------------------------------------------------------------------|
   S   S S S  S  S   S   S  S  S  S  S     S  S   S  S   S  S   S  S   S  S   S  S
|--------------------------------------|--------------------------------------------|
|--------9-9---------------------------|--------------------------------------------|
|------------10-10---------------------|--------------------------------------------|
|-10--10-------------------------------|--------------------------------------------|
|-------------------11--11-11-11-11-11-|---6--6---6--6---6--6---6--6---6--6---6--6--|
|--------------------------------------|---4--4---4--4---4--4---4--4---4--4---4--4--|
|
|  Q.                Q.                   +E      E      E      E      E      E
|-10-----------------8-----------------|--(8)----10------8-----10-----11------8-----|
|-11---------------(11)----------------|-(11)---(11)---(11)---(11)---(11)---(11)----|
|--------------------------------------|--------------------------------------------|
|--------------------------------------|--------------------------------------------|
|--------------------------------------|--------------------------------------------|
|--------------------------------------|--------------------------------------------|


  N.C.                          F#5
                                  PM-------------------------------|
   E   E  E  E.  +S      +E       S   S  S  S  S  S  S  S  S  S  S  S
|-----------------------------|---------------------------------------|
|-----------13--(13)b14r(13)\-|---------------------------------------|
|--------10-------------------|---------------------------------------|
|-----11----------------------|---------------------------------------|
|-/9--------------------------|---4---4--4--4--4--4--4--4--4--4--4--4-|
|-----------------------------|---2---2--2--2--2--2--2--2--2--2--2--2-|
|
|  Q.        Q.                  +S   S  S  S  S  S  S  S  S  S  S  S
|-13--------------------------|---------13-------------13-------------|
|-----------------------------|------13-------11-13-------13----11-13-|
|-----------10----------------|-(10)-------10-------10-------10-------|
|-----------------------------|---------------------------------------|
|-----------------------------|---------------------------------------|
|-----------------------------|---------------------------------------|


  N.C.
   Q.              Q.                Q            E  E     E     E
|---------------------------------|-----------------17----------17-|
|---------------------------------|--------------------------------|
|-10--------------10--------------|-10----------/17-------17-------|
|--x---------------x--------------|--x-----------------------------|
|--8---------------8--------------|--8-----------------------------|
|---------------------------------|--------------------------------|
|
|  S   S  S  S  E  S   S  S  S  E    S  S  S  S   E  S  S  S  S  E
|--------17-18-22--------17-18-22-|-------17-18--20-------17-18-20-|
|-----18--------------18----------|----18--------------18----------|
|---------------------------------|--------------------------------|
|-15--------------15--------------|-15--------------15-------------|
|---------------------------------|--------------------------------|
|---------------------------------|--------------------------------|


  Q=70
  N.C.
 7/8
   >
   H..                  W
|-18------------------|--------------------|
|---------------------|--------------------|
|---------------------|--------------------|
|---------------------|--------------------|
|---------------------|--------------------|
|---------------------|--------------------|
|
| Gtr IV
|  E   S S E E E. S E   E S S E E E. S S S
|------8---6---8----6-|---8---6---8----6---|
|---------------------|--------------------|
|---------------------|--------------------|
|--8-----8---8----8---|-8---8---8----8---8-|
|---------------------|--------------------|
|--6-----6---6----6---|-6---6---6----6---6-|
|---------------------|--------------------|


  W                  W
|------------------|-------------------*|
|------------------|-------------------*|
|------------------|-------------------*|
|------------------|-------------------*|
|------------------|-------------------*|
|------------------|-------------------*|
|
| E S S E E E. S E   E S S E E E. S E
|---8---6---8----6-|---8---6---8----6--*|
|------------------|-------------------*|
|------------------|-------------------*|
|------------------|-8---8---8----8----*|
|-6---6---8----8---|-------------------*|
|------------------|-6---6---6----6----*|
|-4---4---6----6---|-------------------*|



Duration Legend
---------------
W - whole; H - half; Q - quarter; E - 8th; S - 16th; T - 32nd; X - 64th; a - acciaccatura
+ - note tied to previous; . - note dotted; .. - note double dotted
Uncapitalized letters represent notes that are staccato (1/2 duration)
Irregular groupings are notated above the duration line
Duration letters will always appear directly above the note/fret number it represents the
duration for.  Duration letters with no fret number below them represent rests.  Multi-
bar rests are notated in the form Wxn, where n is the number of bars to rest for.  Low
melody durations appear below the staff

Tablature Legend
----------------
 h   - hammer-on
 p   - pull-off
 b   - bend
 pb  - pre-bend
 r   - bend release (if no number after the r, then release immediately)
 /\  - slide into or out of (from/to "nowhere")
 s   - legato slide
 S   - shift slide
 - natural harmonic
[n]  - artificial harmonic
n(n) - tapped harmonic
 ~   - vibrato
 tr  - trill
 T   - tap
 TP  - trem. picking
 PM  - palm muting
\n/  - tremolo bar dip; n = amount to dip
 \n  - tremolo bar down
 n/  - tremolo bar up
/n\  - tremolo bar inverted dip
 =   - hold bend; also acts as connecting device for hammers/pulls
 <> - volume swell (louder/softer)
 x   - on rhythm slash represents muted slash
 o   - on rhythm slash represents single note slash

Misc Legend
-----------
 |  - bar
||  - double bar
||o - repeat start
o|| - repeat end
*|  - double bar (ending)
 :  - bar (freetime)
 $  - Segno
 &  - Coda
Tempo markers -  = BPM(8/16=s8/s16), where s8 = swing 8ths, s16 = swing 16ths

Добавлено: 17.04.2012
Другие материалы по этой песне:

Страница создана 12.03.2012
http://primanota.ru/horse-the-band/the-black-hole-chords.htm
Привет, Гость.
Предлагаем пройти революционный курс по гитаре.
Подарок от PrimaNota.Ru, забирай!