PrimaNota.ru - самый крупный в мире бесплатный архив песенных текстов, аккордов, табулатур и нот


Horse The Band - Taken By Vultures - текст песни, таба, бас-таба, видео

Регистрация Запомнить меня
Войти через:  Facebook Google Twitter Vk Yandex Mail.ru

Horse The Band - Taken By Vultures - текст песни, таба, бас-таба, видео

Печатать
Просмотров: 146
TAKEN BY VULTURES
As recorded by HORSE The Band
(From the 2005 Album THE MECHANICAL HAND)

Transcribed by Tom Wall
        

Words by Nathan Winneke Music by HORSE The Band

Gtr I (D A D G B E) - 'Guitar'
Gtr II (D A D G B E) - 'Keyboard'

 Intro
  Q=260
  N.C.
 2/4           4/4
  Gtr I
                  PM-|                  PM-|          PM              PM-|
    W             E    E   E  E  E  E   E    E     E  E  E  E  E  E   E    E
|-------------|---------------------------------|-----------------------------|
|-------------|---------------------------------|-----------------------------|
|-------------|---------------------------------|-----------------------------|
|-------------|---------------------------------|-----------------------------|
|-------------|------------3h=5--3h=5-----------|--8-----7h=8--3h=5-----------|
|-------------|---0----0----------------0----0--|-----0---------------0----0--|
|
| Gtr II
|   q     q       E    E   E  E  E  E   E    E     E  E  E  E  E  E   E    E
|-------------|---------------------------------|-----------------------------|
|-------------|---------------------------------|-----------------------------|
|-------------|---------------------------------|-----------------------------|
|-------------|-----------10h12-10h12-----------|-15h17-14h15-10h12-----------|
|-------------|---------------------------------|-----------------------------|
|-(12)--(12)--|-(12)-(12)-------------(12)-(12)-|-------------------(12)-(12)-|


                                                F5    E5
          PM-|        PM                PM-|
   E  E   E    E   E  E  E  E    E  E   E    E   Q      Q
|-----------------------------|-----------------------------------|
|-----------------------------|-----------------------------------|
|-----------------------------|-----------------------------------|
|-----------------------------|-----------------------------------|
|--3h=5------------8-----7h=8-|--3h=5------------3------2---------|
|---------0----0------0-------|---------0----0---3------2---------|
|
|  E  E   E    E   E  E  E  E    E  E   E    E   E  E   E    E
|-----------------------------|-----------------------------------|
|-----------------------------|-----------------------------------|
|-----------------------------|-----------------------------------|
|-10h12-----------15h17-14h15-|-10h12-----------10h12-------------|
|-----------------------------|-----------------------------------|
|-------(12)-(12)-------------|-------(12)-(12)-------(12)-(12)---|


  N.C.
    PM-|                  PM-|          PM              PM-|
    E    E   E  E  E  E   E    E     E  E  E  E  E  E   E    E
|---------------------------------|-----------------------------|
|---------------------------------|-----------------------------|
|---------------------------------|-----------------------------|
|---------------------------------|-----------------------------|
|------------3h=5--3h=5-----------|--8-----7h=8--3h=5-----------|
|---0----0----------------0----0--|-----0---------------0----0--|
|
|   E    E   E  E  E  E   E    E     E  E  E  E  E  E   E    E
|---------------------------------|-----------------------------|
|---------------------------------|-----------------------------|
|---------------------------------|-----------------------------|
|-----------10h12-10h12-----------|-15h17-14h15-10h12-----------|
|---------------------------------|-----------------------------|
|-(12)-(12)-------------(12)-(12)-|-------------------(12)-(12)-|


                      PM-|              PM-|            PM-|
   E  E  E  E  E  E   E    E     E  E   E    E   E  E   E    E
|-----------------------------|---------------------------------|
|-----------------------------|---------------------------------|
|-----------------------------|---------------------------------|
|-----------------------------|---------------------------------|
|--7h=8-10h12--8h10-----------|---------------------------------|
|---------------------0----0--|--3h=5---0----0---3h=5---0----0--|
|
|  E  E  E  E  E  E   E    E     E  E   E    E   E  E   E    E
|-----------------------------|---------------------------------|
|-----------------------------|---------------------------------|
|-----------------------------|---------------------------------|
|-14h15-17h19-15h17-----------|-15h17-----------15h17-----------|
|-----------------------------|---------------------------------|
|-------------------(12)-(12)-|-------(12)-(12)-------(12)-(12)-|


    PM-|                  PM-|                          PM-|
    E    E   E  E  E  E   E    E     E  E  E  E  E  E   E    E
|---------------------------------|-----------------------------|
|---------------------------------|-----------------------------|
|---------------------------------|-----------------------------|
|-----------10h12-10h12-----------|-15h17-14h15-10h12-----------|
|-----------10h12-10h12-----------|-15h17-14h15-10h12-----------|
|---0----0----------------0----0--|---------------------0----0--|
|
|   E    E   E  E  E  E   E    E     E  E  E  E  E  E   E    E
|---------------------------------|-----------------------------|
|---------------------------------|-----------------------------|
|---------------------------------|-----------------------------|
|-----------10h12-10h12-----------|-15h17-14h15-10h12-----------|
|---------------------------------|-----------------------------|
|-(12)-(12)-------------(12)-(12)-|-------------------(12)-(12)-|


          PM-|                          PM-|
   E  E   E    E   E  E  E  E    E  E   E    E   E  E   E    +E
|-----------------------------|----------------------------------|
|-----------------------------|------------------6---------------|
|-----------------10h12--9h10-|------------------5h=7------------|
|-10h12-----------10h12--9h10-|-10h12----------------------------|
|-10h12-----------------------|-10h12----------------------------|
|---------0----0--------------|---------0----0----------3b4r=(3)-|
|
|  E  E   E    E   E  E  E  E    E  E   E    E   E  E   E     E
|-----------------------------|----------------------------------|
|-----------------------------|----------------------------------|
|-----------------------------|----------------------------------|
|-10h12-----------15h17-14h15-|-10h12-----------10h12------------|
|-----------------------------|----------------------------------|
|-------(12)-(12)-------------|-------(12)-(12)-------(12)--(12)-|


    PM-|                  PM-|                          PM-|
    E    E   E  E  E  E   E    E     E  E  E  E  E  E   E    E
|---------------------------------|-----------------------------|
|---------------------------------|-----------------------------|
|---------------------------------|-10h12--9h10-----------------|
|-----------10h12-10h12-----------|-10h12--9h10-10h12-----------|
|-----------10h12-10h12-----------|-------------10h12-----------|
|---0----0----------------0----0--|---------------------0----0--|
|
|   E    E   E  E  E  E   E    E     E  E  E  E  E  E   E    E
|---------------------------------|-----------------------------|
|---------------------------------|-----------------------------|
|---------------------------------|-----------------------------|
|-----------10h12-10h12-----------|-15h17-14h15-10h12-----------|
|---------------------------------|-----------------------------|
|-(12)-(12)-------------(12)-(12)-|-------------------(12)-(12)-|


                                F5 G5           F5 G5
                      PM-|              PM-|            PM-|
   E  E  E  E  E  E   E    E     E  E   E    E   E  E   E    E
|-----------------------------|---------------------------------||
|-----------------------------|---------------------------------||
|--9h10-12h14-10h12-----------|---------------------------------||
|--9h10-12h14-10h12-----------|---------------------------------||
|-----------------------------|--3h=5------------3h=5-----------||
|---------------------0----0--|--3h=5---0----0---3h=5---0----0--||
|
|  E  E  E  E  E  E   E    E     E  E   E    E   E  E   E    E
|-----------------------------|---------------------------------||
|-----------------------------|---------------------------------||
|-----------------------------|---------------------------------||
|-14h15-17h19-15h17-----------|-15h17-----------15h17-----------||
|-----------------------------|---------------------------------||
|-------------------(12)-(12)-|-------(12)-(12)-------(12)-(12)-||


   Verse
    N.C.
      PM-|                  PM-|          PM              PM-|
      E    E   E  E  E  E   E    E     E  E  E  E  E  E   E    E
||----------------------------------|-----------------------------|
||o---------------------------------|-----------------------------|
||----------------------------------|-----------------------------|
||----------------------------------|-----------------------------|
||o------------3h=5--3h=5-----------|--8-----7h=8--3h=5-----------|
||----0----0----------------0----0--|-----0---------------0----0--|
|
|     E    E   E  E  E  E   E    E     E  E  E  E  E  E   E    E
||----------------------------------|-----------------------------|
||o---------------------------------|-----------------------------|
||----------------------------------|-----------------------------|
||------------10h12-10h12-----------|-15h17-14h15-10h12-----------|
||o---------------------------------|-----------------------------|
||--(12)-(12)-------------(12)-(12)-|-------------------(12)-(12)-|


                                                F5    E5
          PM-|        PM                PM-|
   E  E   E    E   E  E  E  E    E  E   E    E   Q      Q
|-----------------------------|----------------------------------|
|-----------------------------|----------------------------------|
|-----------------------------|----------------------------------|
|-----------------------------|----------------------------------|
|--3h=5------------8-----7h=8-|--3h=5------------3------2--------|
|---------0----0------0-------|---------0----0---3------2--------|
|
|  E  E   E    E   E  E  E  E    E  E   E    E   E  E   E    E
|-----------------------------|----------------------------------|
|-----------------------------|----------------------------------|
|-----------------------------|----------------------------------|
|-10h12-----------15h17-14h15-|-10h12-----------10h12------------|
|-----------------------------|----------------------------------|
|-------(12)-(12)-------------|-------(12)-(12)-------(12)-(12)--|


  N.C.
    PM-|                  PM-|          PM              PM-|
    E    E   E  E  E  E   E    E     E  E  E  E  E  E   E    E
|---------------------------------|-----------------------------|
|---------------------------------|-----------------------------|
|---------------------------------|-----------------------------|
|---------------------------------|-----------------------------|
|------------3h=5--3h=5-----------|--8-----7h=8--3h=5-----------|
|---0----0----------------0----0--|-----0---------------0----0--|
|
|   E    E   E  E  E  E   E    E     E  E  E  E  E  E   E    E
|---------------------------------|-----------------------------|
|---------------------------------|-----------------------------|
|---------------------------------|-----------------------------|
|-----------10h12-10h12-----------|-15h17-14h15-10h12-----------|
|---------------------------------|-----------------------------|
|-(12)-(12)-------------(12)-(12)-|-------------------(12)-(12)-|


                      PM-|              PM-|            PM-|
   E  E  E  E  E  E   E    E     E  E   E    E   E  E   E    E
|-----------------------------|----------------------------------||
|-----------------------------|---------------------------------o||
|-----------------------------|----------------------------------||
|-----------------------------|----------------------------------||
|--7h=8-10h12--8h10-----------|---------------------------------o||
|---------------------0----0--|--3h=5---0----0---3h=5---0----0---||
|
|  E  E  E  E  E  E   E    E     E  E   E    E   E  E   E    E
|-----------------------------|----------------------------------||
|-----------------------------|---------------------------------o||
|-----------------------------|----------------------------------||
|-14h15-17h19-15h17-----------|-15h17-----------15h17------------||
|-----------------------------|---------------------------------o||
|-------------------(12)-(12)-|-------(12)-(12)-------(12)-(12)--||


 Breakdown
  Dm                                 Csus2/D
   Q   Q  E  Q   E    +q   H.         Q   Q  E  Q   E    +q   H.
|------------------|---------------|------------------|-------------|
|------------------|---------------|------------------|-------------|
|--7---7--x--7---7-|--(7)----------|--7---7--x--7---7-|--(7)--------|
|--3---3--x--3---3-|--(3)----------|--0---0--x--0---0-|--(0)--------|
|--5---5--x--5---5-|--(5)----------|--3---3--x--3---3-|--(3)--------|
|--0---0--x--0---0-|--(0)----------|--0---0--x--0---0-|--(0)--------|
|
|  Q   Q  E  Q   E    +q   H.         Q   Q  E  Q   E    +q   H.
|------------------|---------------|------------------|-------------|
|------------------|---------------|------------------|-------------|
|------------------|---------------|------------------|-------------|
|-10--10----10--10-|-(10)----------|-10--10----10--10-|-(10)--------|
|-12--12----12--12-|-(12)----------|-12--12----12--12-|-(12)--------|
|-12--12----12--12-|-(12)----------|-12--12----12--12-|-(12)--------|


  Dsus2                         Dm
  Q  Q  E Q  E   +q   H.         Q   Q  E  Q   E    +E  E E  E E E E E
|--------------|--------------|------------------|---------------------|
|-5--5--x-5--5-|-(5)----------|--6---6--x--6---6-|--(6)----------------|
|-7--7--x-7--7-|-(7)----------|--7---7--x--7---7-|--(7)----------------|
|-0--0--x-0--0-|-(0)----------|--0---0--x--0---0-|--(0)----------------|
|-7--7--x-7--7-|-(7)----------|--8---8--x--8---8-|--(8)----------------|
|-0--0--x-0--0-|-(0)----------|--0---0--x--0---0-|--(0)-0-0--0-0-0-0-0-|
|
| Q  Q  E Q  E   +q   H.         Q   Q  E  Q   E    +q    H.
|--------------|--------------|------------------|---------------------|
|--------------|--------------|------------------|---------------------|
|-9--9----9--9-|-(9)----------|-10--10----10--10-|-(10)----------------|
|-0--0----0--0-|-(0)----------|--0---0-----0---0-|--(0)----------------|
|-8--8----8--8-|-(8)----------|--8---8-----8---8-|--(8)----------------|
|--------------|--------------|------------------|---------------------|


    Dm
                            PM-----------|
     Q   Q  E  Q   E    +e  E E  E E E E E
||-------------------|---------------------|
||o------------------|---------------------|
||---7---7--x--7---7-|--(7)----------------|
||---3---3--x--3---3-|--(3)----------------|
||o--5---5--x--5---5-|--(5)----------------|
||---0---0--x--0---0-|--(0)-0-0--0-0-0-0-0-|
|
|    Q   Q  E  Q   E    +q    H.
||-------------------|---------------------|
||o------------------|---------------------|
||-------------------|---------------------|
||--10--10----10--10-|-(10)----------------|
||o-12--12----12--12-|-(12)----------------|
||--12--12----12--12-|-(12)----------------|


  Csus2/D
                          PM-----------|
   Q   Q  E  Q   E    +E  E E  E E E E E
|------------------|----------------------|
|------------------|----------------------|
|--7---7--x--7---7-|--(7)-----------------|
|--0---0--x--0---0-|--(0)-----------------|
|--3---3--x--3---3-|--(3)-----------------|
|--0---0--x--0---0-|--(0)-0-0--0-0-0-0-0--|
|
|  Q   Q  E  Q   E    +q    H.
|------------------|----------------------|
|------------------|----------------------|
|------------------|----------------------|
|-10--10----10--10-|-(10)-----------------|
|-12--12----12--12-|-(12)-----------------|
|-12--12----12--12-|-(12)-----------------|


  Dsus2                               Dm
                     PM-----------|                           PM-----------|
  Q  Q  E Q  E   +E  E E  E E E E E    Q   Q  E  Q   E    +E  E E  E E E E E
|--------------|--------------------|------------------|----------------------||
|-5--5--x-5--5-|-(5)----------------|--6---6--x--6---6-|--(6)----------------o||
|-7--7--x-7--7-|-(7)----------------|--7---7--x--7---7-|--(7)-----------------||
|-0--0--x-0--0-|-(0)----------------|--0---0--x--0---0-|--(0)-----------------||
|-7--7--x-7--7-|-(7)----------------|--8---8--x--8---8-|--(8)----------------o||
|-0--0--x-0--0-|-(0)-0-0--0-0-0-0-0-|--0---0--x--0---0-|--(0)-0-0--0-0-0-0-0--||
|
| Q  Q  E Q  E   +q    H.              Q   Q  E  Q   E    +q    H.
|--------------|--------------------|------------------|----------------------||
|--------------|--------------------|------------------|---------------------o||
|-9--9----9--9-|-(9)----------------|-10--10----10--10-|-(10)-----------------||
|-0--0----0--0-|-(0)----------------|--0---0-----0---0-|--(0)-----------------||
|-8--8----8--8-|-(8)----------------|--8---8-----8---8-|--(8)----------------o||
|--------------|--------------------|------------------|----------------------||


 Verse
  D5
   PM-------------------------------------------
   Q    Q    E Q    E   +e  H..
|---------------------|------------------------|
|---------------------|------------------------|
|---------------------|------------------------|
|---------------------|------------------------|
|--0----0----x-0----0-|-(0)--------------------|
|--0----0----x-0----0-|-(0)--------------------|
|
|  Q    Q    E Q    E   +E  H..
|---------------------|------------------------|
|---------------------|------------------------|
|--5----5------5----5-|-(5)--------------------|
|--7----7------7----7-|-(7)--------------------|
|--5----5------5----5-|-(5)--------------------|
|-12-0-12-0-12-0-12-0-|-12--0---12-0-12-0-12-0-|
   E E  E E  E E  E E    E  E    E E  E E  E E


 -------------------------------|
   |--3--|
   E E   E  Q    E Q    E   +e  H..
|-------------------------|------------------------|
|-------------------------|------------------------|
|-------------------------|------------------------|
|-------------------------|------------------------|
|--0-0---0--0----x-0----0-|-(0)--------------------|
|--0-0---0--0----x-0----0-|-(0)--------------------|
|
|  Q        Q    E Q    E   +E  H..
|-------------------------|------------------------|
|-------------------------|------------------------|
|--5--------5------5----5-|-(5)--------------------|
|--7--------7------7----7-|-(7)--------------------|
|--5--------5------5----5-|-(5)--------------------|
|-10---0---10-0-10-0-10-0-|-10--0---10-0-10-0-10-0-|
   E   E    E E  E E  E E    E  E    E E  E E  E E


   PM-------------------------------------------
   Q    Q    E Q    E   +e  H..
|---------------------|------------------------|
|---------------------|------------------------|
|---------------------|------------------------|
|---------------------|------------------------|
|--0----0----x-0----0-|-(0)--------------------|
|--0----0----x-0----0-|-(0)--------------------|
|
|  Q    Q    E Q    E   +E  H..
|---------------------|------------------------|
|---------------------|------------------------|
|--9----9------9----9-|-(9)--------------------|
|--0----0------0----0-|-(0)--------------------|
|--8----8------8----8-|-(8)--------------------|
|-15-0-15-0-15-0-15-0-|-15--0---15-0-15-0-15-0-|
   E E  E E  E E  E E    E  E    E E  E E  E E


 ---------------------------------|
   |--3--|
   E E   E  Q    E  Q     E   +e  H..
|---------------------------|-------------------------||
|---------------------------|-------------------------||
|---------------------------|-------------------------||
|---------------------------|-------------------------||
|--0-0---0--0----x--0-----0-|-(0)---------------------||
|--0-0---0--0----x--0-----0-|-(0)---------------------||
|
|  Q        Q    E  Q     E    q       H.
|---------------------------|-------------------------||
|---------------------------|-------------------------||
|-10-------10------10----10-|-10----------------------||
|--0--------0-------0-----0-|--0----------------------||
|--8--------8-------8-----8-|--8----------------------||
|-19---0---19-0-19--0-19--0-|-15--0---15--0-15-0-15-0-||
   E   E    E E  E  E  E  E    E  E    E  E  E E  E E


 SLAVES!
  N.C.
 6/8
  Gtr II
  Wx6         H.         +H.         +H.         +H.
|----------|----------|-----------|-----------|---------|
|----------|----------|-----------|-----------|---------|
|----------|----------|-----------|-----------|---------|
|----------|-13-------|-(13)------|-(13)------|-(13)----|
|----------|----------|-----------|-----------|---------|
|----------|----------|-----------|-----------|---------|


   4/4
     +W            +W            +W            +W
||--------------|-------------|-------------|----------||
||o-------------|-------------|-------------|---------o||
||--------------|-------------|-------------|----------||
||--(13)--------|-(13)--------|-(13)--------|-(13)-----||
||o-------------|-------------|-------------|---------o||
||--------------|-------------|-------------|----------||


    Q.=155
    Cmadd9/D
   6/8
    Gtr I
    Q  Q  Q    Q  Q  Q    W        W
||--8--8--8--|-8--8--8--|--------|-------||
||o-4--4--4--|-4--4--4--|--------|------o||
||--7--7--7--|-7--7--7--|--------|-------||
||--0--0--0--|-0--0--0--|--------|-------||
||o----------|----------|--------|------o||
||-----------|----------|--------|-------||


    D5                    N.C.
                        Gtr II
    PM---------------|
    Q  Q  Q    Q  Q  Q     H.         +H.     3x
||-----------|----------|----------|----------||
||o----------|----------|----------|---------o||
||-----------|----------|----------|----------||
||-----------|----------|-13-------|-(13)-----||
||o-0--0--0--|-0--0--0--|----------|---------o||
||--0--0--0--|-0--0--0--|----------|----------||


  D5                       N.C.                   D5
  Gtr I               Gtr II
  PM---------------|
  Q  Q  Q    Q  Q  Q    Q   E  Q.      +H.        Q  H
|----------|----------|-------------|-----------|---------*|
|----------|----------|----13-------|-----------|---------*|
|----------|----------|-------------|-----------|---------*|
|----------|----------|-------13----|-(13)------|---------*|
|-0--0--0--|-0--0--0--|-------------|-----------|-0-------*|
|-0--0--0--|-0--0--0--|-------------|-----------|-0-------*|



Duration Legend
---------------
W - whole; H - half; Q - quarter; E - 8th; S - 16th; T - 32nd; X - 64th; a - acciaccatura
+ - note tied to previous; . - note dotted; .. - note double dotted
Uncapitalized letters represent notes that are staccato (1/2 duration)
Irregular groupings are notated above the duration line
Duration letters will always appear directly above the note/fret number it represents the
duration for.  Duration letters with no fret number below them represent rests.  Multi-
bar rests are notated in the form Wxn, where n is the number of bars to rest for.  Low
melody durations appear below the staff

Tablature Legend
----------------
 h   - hammer-on
 p   - pull-off
 b   - bend
 pb  - pre-bend
 r   - bend release (if no number after the r, then release immediately)
 /\  - slide into or out of (from/to "nowhere")
 s   - legato slide
 S   - shift slide
 - natural harmonic
[n]  - artificial harmonic
n(n) - tapped harmonic
 ~   - vibrato
 tr  - trill
 T   - tap
 TP  - trem. picking
 PM  - palm muting
\n/  - tremolo bar dip; n = amount to dip
 \n  - tremolo bar down
 n/  - tremolo bar up
/n\  - tremolo bar inverted dip
 =   - hold bend; also acts as connecting device for hammers/pulls
 <> - volume swell (louder/softer)
 x   - on rhythm slash represents muted slash
 o   - on rhythm slash represents single note slash

Misc Legend
-----------
 |  - bar
||  - double bar
||o - repeat start
o|| - repeat end
*|  - double bar (ending)
 :  - bar (freetime)
 $  - Segno
 &  - Coda
Tempo markers -  = BPM(8/16=s8/s16), where s8 = swing 8ths, s16 = swing 16ths

Добавлено: 26.07.2012
Другие материалы по этой песне:

Страница создана 11.03.2012
http://primanota.ru/horse-the-band/taken-by-vultures-chords.htm
Привет, Гость.
Предлагаем пройти революционный курс по гитаре.
Подарок от PrimaNota.Ru, забирай!