PrimaNota.ru - самый крупный в мире бесплатный архив песенных текстов, аккордов, табулатур и нот


Horse The Band - Soaring Quails - таба, бас-таба, видео

Регистрация Запомнить меня
Войти через:  Facebook Google Twitter Vk Yandex Mail.ru

Horse The Band - Soaring Quails - таба, бас-таба, видео

Печатать
Просмотров: 130
Уроки эстрадного вокала в Санкт-Петербурге
SOARING QUAILS
As recorded by HORSE The Band
(From the 2005 Album THE MECHANICAL HAND)

Transcribed by Tom Wall
        

Words and Music by HORSE The Band

Gtr I (D A D G B E) - 'Guitar'
Gtr II (D A D G B E) - 'Keyboard'

 Intro
  Q=146
  E5
 4/4
  Gtr I
  W          +W
|----------|----------------------------------------|
|----------|----------------------------------------|
|----------|----------------------------------------|
|-2--------|-(2)------------------------------------|
|-2--------|-(2)------------------------------------|
|-2--------|-(2)------------------------------------|
|
| Gtr II
| W           S  S  S S  S S S S  S S  S S  S S S S
|----------|-12------------------12-----------------|
|----------|-------12---10---9--------12---10---9---|
|----------|-----9----9----9---9----9----9----9---9-|
|----------|----------------------------------------|
|----------|----------------------------------------|
|----------|----------------------------------------|


  +W
|----------------------------------------||
|----------------------------------------||
|----------------------------------------||
|-(2)------------------------------------||
|-(2)------------------------------------||
|-(2)------------------------------------||
|
|  S  S  S S  S S S S  S S  S S  S S S S
|-12------------------12-----------------||
|-------12---10---9--------12---10---9---||
|-----9----9----9---9----9----9----9---9-||
|----------------------------------------||
|----------------------------------------||
|----------------------------------------||


 Part I
  N.C.
    W                                       H..                                 S  S
|----------------------------------------|-------------------------------------------|
|-/17------------------------------------|-17----------------------------------17-17-|
|----------------------------------------|-------------------------------------------|
|----------------------------------------|-------------------------------------------|
|----------------------------------------|-------------------------------------------|
|----------------------------------------|-------------------------------------------|
|
|   S S  S S  S S S S  S S  S S  S S S S    S   S  S S  S S S S  S S  S S  S S  S  S
|--12-----------------12-----------------|-12-------------------12-------------------|
|-------12---10---9--------12---10---9---|--------12---10---9--------12---10----9----|
|-----9----9----9---9----9----9----9---9-|------9----9----9---9----9----9----9-----9-|
|----------------------------------------|-------------------------------------------|
|----------------------------------------|-------------------------------------------|
|----------------------------------------|-------------------------------------------|


   S  S  +H..
|----------------------------------------------|
|-17S19-(19)-----------------------------------|
|----------------------------------------------|
|----------------------------------------------|
|----------------------------------------------|
|----------------------------------------------|
|
|  S  S   S   S  S S S S  S S  S S  S S S S
|-12---------------------12--------------------|
|--------12-----10---9--------12---10---9------|
|-----9-------9----9---9----9----9----9---9----|
|----------------------------------------------|
|----------------------------------------------|
|----------------------------------------------|


                         |----------3-----------|
   H                  a  Q        a   Q         Q
|-----------------------------------------------------|
|-19-----------------19s21------(21)s19--------17-----|
|-----------------------------------------------------|
|-----------------------------------------------------|
|-----------------------------------------------------|
|-----------------------------------------------------|
|
|  S S  S S  S S S S     S S  S         S  S S    S S
|-12--------------------12----------------------------|
|------12---10---9-----------12-----------10------9---|
|----9----9----9---9-------9------------9----9------9-|
|-----------------------------------------------------|
|-----------------------------------------------------|
|-----------------------------------------------------|


    H..                                 S  S    H..                                 S  S
|-/19----------------------------------------|----------------------------------------------|
|--------------------------------------17-17-|-17----------------------------------17-17----|
|--------------------------------------------|----------------------------------------------|
|--------------------------------------------|----------------------------------------------|
|--------------------------------------------|----------------------------------------------|
|--------------------------------------------|----------------------------------------------|
|
|   S   S  S S  S S S S  S S  S S  S S  S  S    S   S  S S  S S S S  S S  S S  S S  S  S
|--12-------------------12-------------------|-12-------------------12----------------------|
|---------12---10---9--------12---10----9----|--------12---10---9--------12---10----9-------|
|-------9----9----9---9----9----9----9-----9-|------9----9----9---9----9----9----9-----9----|
|--------------------------------------------|----------------------------------------------|
|--------------------------------------------|----------------------------------------------|
|--------------------------------------------|----------------------------------------------|


    H..                                 S  S
|-/19----------------------------------------|
|--------------------------------------16-16-|
|--------------------------------------------|
|--------------------------------------------|
|--------------------------------------------|
|--------------------------------------------|
|
|   S   S  S S  S S S S  S S  S S  S S  S  S
|--12-------------------12-------------------|
|---------12---10---9--------12---10----9----|
|-------9----9----9---9----9----9----9-----9-|
|--------------------------------------------|
|--------------------------------------------|
|--------------------------------------------|


   H..                                  a    E
|-------------------------------------------------||
|-16----------------------------------(16)s(17)---||
|-------------------------------------------------||
|-------------------------------------------------||
|-------------------------------------------------||
|-------------------------------------------------||
|
|  S   S  S S  S S S S  S S  S S  S S        S  S
|-12-------------------12-------------------------||
|--------12---10---9--------12---10----------9----||
|------9----9----9---9----9----9----9-----------9-||
|-------------------------------------------------||
|-------------------------------------------------||
|-------------------------------------------------||


 Part II
  N.C.
    E    S  S  S  S   S  S  S  S  S  S  S  S   S  S
|---------------------------------------------------|
|-------------17p14-(14)---------------17p14-(14)---|
|-\13----------------------16p13--------------------|
|-------16p14--------16p14-------16p14--------16p14-|
|---------------------------------------------------|
|---------------------------------------------------|
|
|   S S  S  S  S  S   S  S  S  S  S  S  S  S   S  S
|--12----------------------12-----------------------|
|-------12----10------9----------12----10------9----|
|-----9-----9-----9------9-----9-----9-----9------9-|
|---------------------------------------------------|
|---------------------------------------------------|
|---------------------------------------------------|


   S  S  S  S  S  S   S  S  S  S  S  S  S  S   S  S
|----------------------------------------------------|
|-------------17p14-(14)---------------17p14-(14)----|
|-16p13--------------------16p13---------------------|
|-------16p14--------16p14-------16p14--------16p14--|
|----------------------------------------------------|
|----------------------------------------------------|
|
|  S  S  S  S  S  S   S  S  S  S  S  S  S  S   S  S
|-12-----------------------12------------------------|
|-------12----10------9----------12----10------9-----|
|-----9-----9-----9------9-----9-----9-----9------9--|
|----------------------------------------------------|
|----------------------------------------------------|
|----------------------------------------------------|


     S  S  S  S  S  S   S  S  S  S  S  S  S  S   S  S
||----------------------------------------------------|
||o-------------17p14-(14)---------------17p14-(14)---|
||--16p13--------------------16p13--------------------|
||--------16p14--------16p14-------16p14--------16p14-|
||o---------------------------------------------------|
||----------------------------------------------------|
|
|    S  S  S  S  S  S   S  S  S  S  S  S  S  S   S  S
||--12-----------------------12-----------------------|
||o-------12----10------9----------12----10------9----|
||------9-----9-----9------9-----9-----9-----9------9-|
||----------------------------------------------------|
||o---------------------------------------------------|
||----------------------------------------------------|


   S  S  S  S  S  S   S  S  S  S  S  S  S  S   S  S  3x
|----------------------------------------------------||
|-------------17p14-(14)---------------17p14-(14)---o||
|-16p13--------------------16p13---------------------||
|-------16p14--------16p14-------16p14--------16p14--||
|---------------------------------------------------o||
|----------------------------------------------------||
|
|  S  S  S  S  S  S   S  S  S  S  S  S  S  S   S  S  3x
|-12-----------------------12------------------------||
|-------12----10------9----------12----10------9----o||
|-----9-----9-----9------9-----9-----9-----9------9--||
|----------------------------------------------------||
|---------------------------------------------------o||
|----------------------------------------------------||


 Part III
  E5
   W
|---------------------------------------|
|---------------------------------------|
|---------------------------------------|
|---------------------------------------|
|--2------------------------------------|
|--2------------------------------------|
|
|  S S  S S  S S S S  S S  S S  S S S S
|-12-----------------12-----------------|
|------12---10---9--------12---10---9---|
|----9----9----9---9----9----9----9---9-|
|---------------------------------------|
|---------------------------------------|
|---------------------------------------|


  +W
|-----------------------------------------|
|-----------------------------------------|
|-----------------------------------------|
|-----------------------------------------|
|-(2)-------------------------------------|
|-(2)-------------------------------------|
|
|  S  S  S S  S S S S  S S  S S  S S S S
|-12------------------12------------------|
|-------12---10---9--------12---10---9----|
|-----9----9----9---9----9----9----9---9--|
|-----------------------------------------|
|-----------------------------------------|
|-----------------------------------------|


  F#5
   W
|---------------------------------------|
|---------------------------------------|
|---------------------------------------|
|---------------------------------------|
|--4------------------------------------|
|--4------------------------------------|
|
|  S S  S S  S S S S  S S  S S  S S S S
|-12-----------------12-----------------|
|------12---10---9--------12---10---9---|
|----9----9----9---9----9----9----9---9-|
|---------------------------------------|
|---------------------------------------|
|---------------------------------------|


                        N.C.
                         |---------3---------|
  +H                  a  Q       a  Q        Q
|---------------------------------------------------|
|---------------------------------------------------|
|---------------------------------------------------|
|---------------------------------------------------|
|-(4)-----------------------------------------------|
|-(4)-----------------4s=6------(6)s4--------2------|
|
|  S  S  S S  S S S S    S S  S       S  S S   S S
|-12--------------------12--------------------------|
|-------12---10---9----------12---------10-----9----|
|-----9----9----9---9------9----------9----9-----9--|
|---------------------------------------------------|
|---------------------------------------------------|
|---------------------------------------------------|


   ~~~~~~~~~~~~~~~~~~~~~~~~~~~~~~~~~~~~~~
   W
|---------------------------------------|
|---------------------------------------|
|---------------------------------------|
|---------------------------------------|
|-/2------------------------------------|
|---------------------------------------|
|
|  S S  S S  S S S S  S S  S S  S S S S
|-12-----------------12-----------------|
|------12---10---9--------12---10---9---|
|----9----9----9---9----9----9----9---9-|
|---------------------------------------|
|---------------------------------------|
|---------------------------------------|


 ~~~~
   W
|----------------------------------------|
|----------------------------------------|
|----------------------------------------|
|----------------------------------------|
|----------------------------------------|
|--2-------------------------------------|
|
|  S S  S S  S S S S  S S  S S  S S S S
|-12-----------------12------------------|
|------12---10---9--------12---10---9----|
|----9----9----9---9----9----9----9---9--|
|----------------------------------------|
|----------------------------------------|
|----------------------------------------|


   ~~
   W
|---------------------------------------|
|---------------------------------------|
|---------------------------------------|
|---------------------------------------|
|-/2------------------------------------|
|---------------------------------------|
|
|  S S  S S  S S S S  S S  S S  S S S S
|-12-----------------12-----------------|
|------12---10---9--------12---10---9---|
|----9----9----9---9----9----9----9---9-|
|---------------------------------------|
|---------------------------------------|
|---------------------------------------|


   W
|----------------------------------------||
|----------------------------------------||
|----------------------------------------||
|----------------------------------------||
|----------------------------------------||
|--1-------------------------------------||
|
|  S S  S S  S S S S  S S  S S  S S S S
|-12-----------------12------------------||
|------12---10---9--------12---10---9----||
|----9----9----9---9----9----9----9---9--||
|----------------------------------------||
|----------------------------------------||
|----------------------------------------||


 Part IV
  N.C.
   S S  S +S   S S S S  S S  S +S   S S S S
|-------------------------------------------|
|--5p0------------------5p0-----------------|
|-------4-(4)--2-1-----------4-(4)--2-1-----|
|------------------2--------------------2---|
|--------------------2--------------------2-|
|-------------------------------------------|
|
|  S S  S  S   S S S S  S S  S  S   S S S S
|-12-------------------12-------------------|
|------12-----10---9--------12-----10---9---|
|----9-----9-----9---9----9-----9-----9---9-|
|-------------------------------------------|
|-------------------------------------------|
|-------------------------------------------|


   S S  S +S   S S S S  S S  S +S   S S S S
|--------------------------------------------|
|--5p0------------------5p0------------------|
|-------4-(4)--2-1-----------4-(4)--2-1------|
|------------------2--------------------2----|
|--------------------2--------------------2--|
|--------------------------------------------|
|
|  S S  S  S   S S S S  S S  S  S   S S S S
|-12-------------------12--------------------|
|------12-----10---9--------12-----10---9----|
|----9-----9-----9---9----9-----9-----9---9--|
|--------------------------------------------|
|--------------------------------------------|
|--------------------------------------------|


   S  S  S +S   S  S S  S  S  S  S +S   S  S S  S
|-------------------------------------------------|
|--5p=0--------------------5p=0-------------------|
|--------4-(4)--2--1-------------4-(4)--2--1------|
|--------------------2-----------------------2----|
|-----------------------2-----------------------2-|
|-------------------------------------------------|
|
|  S  S  S  S   S  S S  S  S  S  S  S   S  S S  S
|-12----------------------12----------------------|
|-------12-----10----9----------12-----10----9----|
|-------------------------------------------------|
|----11----11-----11---11----11----11-----11---11-|
|-------------------------------------------------|
|-------------------------------------------------|


   S  S  S +S   S  S S  S  S  S  S +S   S  S S  S
|--------------------------------------------------|
|--5p=0--------------------5p=0--------------------|
|--------4-(4)--2--1-------------4-(4)--2--1-------|
|--------------------2-----------------------2-----|
|-----------------------2-----------------------2--|
|--------------------------------------------------|
|
|  S  S  S  S   S  S S  S  S  S  S  S   S  S S  S
|-12----------------------12-----------------------|
|-------12-----10----9----------12-----10----9-----|
|--------------------------------------------------|
|----11----11-----11---11----11----11-----11---11--|
|--------------------------------------------------|
|--------------------------------------------------|


   S  S  S +S   S  S S  S  S  S  S +S   S  S S  S
|-------------------------------------------------|
|--5p=0--------------------5p=0-------------------|
|--------4-(4)--2--1-------------4-(4)--2--1------|
|--------------------2-----------------------2----|
|-----------------------2-----------------------2-|
|-------------------------------------------------|
|
|  S  S  S  S   S  S S  S  S  S  S  S   S  S S  S
|-12----------------------12----------------------|
|-------12-----10----9----------12-----10----9----|
|-------------------------------------------------|
|----12----12-----12---12----12----12-----12---12-|
|-------------------------------------------------|
|-------------------------------------------------|


   S  S  S +S   S  S S  S  S  S  S +S   S  S S  S
|--------------------------------------------------|
|--5p=0--------------------5p=0--------------------|
|--------4-(4)--2--1-------------4-(4)--2--1-------|
|--------------------2-----------------------2-----|
|-----------------------2-----------------------2--|
|--------------------------------------------------|
|
|  S  S  S  S   S  S S  S  S  S  S  S   S  S S  S
|-12----------------------12-----------------------|
|-------12-----10----9----------12-----10----9-----|
|--------------------------------------------------|
|----12----12-----12---12----12----12-----12---12--|
|--------------------------------------------------|
|--------------------------------------------------|


   S  S  S +S   S  S S  S  S  S  S +S   S  S S  S
|-------------------------------------------------|
|--5p=0--------------------5p=0-------------------|
|--------4-(4)--2--1-------------4-(4)--2--1------|
|--------------------2-----------------------2----|
|-----------------------2-----------------------2-|
|-------------------------------------------------|
|
|  S  S  S  S   S  S S  S  S  S  S  S   S  S S  S
|-12----------------------12----------------------|
|-------12-----10----9----------12-----10----9----|
|-------------------------------------------------|
|-------------------------------------------------|
|----12----12-----12---12----12----12-----12---12-|
|-------------------------------------------------|


   S  S  S +S   S  S S  S  S  S  S +S   S  S S  S
|--------------------------------------------------||
|--5p=0--------------------5p=0--------------------||
|--------4-(4)--2--1-------------4-(4)--2--1-------||
|--------------------2-----------------------2-----||
|-----------------------2-----------------------2--||
|--------------------------------------------------||
|
|  S  S  S  S   S  S S  S  S  S  S  S   S  S S  S
|-12----------------------12-----------------------||
|-------12-----10----9----------12-----10----9-----||
|--------------------------------------------------||
|--------------------------------------------------||
|----12----12-----12---12----12----12-----12---12--||
|--------------------------------------------------||


 Outro
  D5
                                     >
  W                                 +W
|---------------------------------|-----------------------------------|
|---------------------------------|-----------------------------------|
|---------------------------------|-----------------------------------|
|---------------------------------|-----------------------------------|
|-0-------------------------------|-(0)-------------------------------|
|-0-------------------------------|-(0)-------------------------------|
|
| S S S S S S S S S S S S S S S S    S  S S S S S S S S S S S S S S S
|-5---1-----------5---1-----------|--5----1-----------5---1-----------|
|---------3---1-----------3---1---|-----------3---1-----------3---1---|
|---------------------------------|-----------------------------------|
|---0---0---0---0---0---0---0---0-|-----0---0---0---0---0---0---0---0-|
|---------------------------------|-----------------------------------|
|---------------------------------|-----------------------------------|


  +W                                  W
|-----------------------------------|-----------------------------------*|
|-----------------------------------|-----------------------------------*|
|-----------------------------------|-----------------------------------*|
|-----------------------------------|-----------------------------------*|
|-(0)-------------------------------|-----------------------------------*|
|-(0)-------------------------------|-----------------------------------*|
|
|  S  S S S S S S S S S S S S S S S   S S S S S S S S S S S S S S S S
|--5----1-----------5---1-----------|-5---1-----------5---1-------------*|
|-----------3---1-----------3---1---|---------3---1-----------3---1-----*|
|-----------------------------------|-----------------------------------*|
|-----0---0---0---0---0---0---0---0-|---0---0---0---0---0---0---0---0---*|
|-----------------------------------|-----------------------------------*|
|-----------------------------------|-----------------------------------*|



Duration Legend
---------------
W - whole; H - half; Q - quarter; E - 8th; S - 16th; T - 32nd; X - 64th; a - acciaccatura
+ - note tied to previous; . - note dotted; .. - note double dotted
Uncapitalized letters represent notes that are staccato (1/2 duration)
Irregular groupings are notated above the duration line
Duration letters will always appear directly above the note/fret number it represents the
duration for.  Duration letters with no fret number below them represent rests.  Multi-
bar rests are notated in the form Wxn, where n is the number of bars to rest for.  Low
melody durations appear below the staff

Tablature Legend
----------------
 h   - hammer-on
 p   - pull-off
 b   - bend
 pb  - pre-bend
 r   - bend release (if no number after the r, then release immediately)
 /\  - slide into or out of (from/to "nowhere")
 s   - legato slide
 S   - shift slide
 - natural harmonic
[n]  - artificial harmonic
n(n) - tapped harmonic
 ~   - vibrato
 tr  - trill
 T   - tap
 TP  - trem. picking
 PM  - palm muting
\n/  - tremolo bar dip; n = amount to dip
 \n  - tremolo bar down
 n/  - tremolo bar up
/n\  - tremolo bar inverted dip
 =   - hold bend; also acts as connecting device for hammers/pulls
 <> - volume swell (louder/softer)
 x   - on rhythm slash represents muted slash
 o   - on rhythm slash represents single note slash

Misc Legend
-----------
 |  - bar
||  - double bar
||o - repeat start
o|| - repeat end
*|  - double bar (ending)
 :  - bar (freetime)
 $  - Segno
 &  - Coda
Tempo markers -  = BPM(8/16=s8/s16), where s8 = swing 8ths, s16 = swing 16ths

Добавлено: 31.03.2012
Другие материалы по этой песне:

Страница создана 31.03.2012
http://primanota.ru/horse-the-band/soaring-quails-chords.htm
Привет, Гость.
Предлагаем пройти революционный курс по гитаре.
Подарок от PrimaNota.Ru, забирай!