PrimaNota.ru - самый крупный в мире бесплатный архив песенных текстов, аккордов, табулатур и нот


Horse The Band - Murder - текст песни, таба, бас-таба, видео

Регистрация Запомнить меня
Войти через:  Facebook Google Twitter Vk Yandex Mail.ru

Horse The Band - Murder - текст песни, таба, бас-таба, видео

Печатать
Просмотров: 242
Уроки эстрадного вокала в Санкт-Петербурге
this is my first tab and i did it by ear. this is Murder from Horse the Band's new album 
A Natural Death". please rate it. if u want to know how some struming goes or even how 
sounds like its all here.
http://myspace.com/horsetheband
this is a video of me playing it
http://www.youtube.com/shadowelite141

~= bend
p= pull off


Intro
                          go to myspace.com/horsetheband   for STRUMMING!!
E4|10-8-6-5---8-6-5-3--6-5-3-1-------|-------------------------------------|
B3|------------------------------------------------------------------------|
G3|------------------------------------------------------------------------|
D3|-------------------------------------------------------------------~7---|
A2|-------------------------------00--000000000000000--88888888888888------|
D2|-------------------------------00--000000000000000--88888888888888------|
|

|-----------------------------------------------------------------------------------|
|-----------------------------------------------------------------------------------|
|------------------------------------------------------10-10------------------------|
|------------------------------------3333-5555-7777-888--8--------------------------|
|-000000000000000--88888888888888----------------------------3333-5555-77777-888-7-5|
|-000000000000000--88888888888888---------------------------------------------------|


|------------------------------------------------------------------------------------------------|
|--------------------8888-10101010-11111111-12121212---------------------------------------------|
|-7777-9999-10101010-------------------------------------------------------7p5p-7p5p-7p5p-7p5p-77|
|----------------------------------------------------7p5p-7p5p-7p5p-7p5p-77----------------------|
|------------------------------------------------------------------------------------------------|
|------------------------------------------------------------------------------------------------|
|
|
|--------------------------|
|--------------------------|
|--------------------------|
|--------------------------|
|-000000000--000000000-----|
|-000000000--000000000-----|


|---------------------------------------------------|
|---------------------------------------------------|
|---------------------------------------------------|
|---------------------------------------------------|
|--8888-5555---1-0-3-0--1-0-3-0--1-0-3-0--1-0-3-0---|
|--8888-5555---1-0-3-0--1-0-3-0--1-0-3-0--1-0-3-0---|
----------------------------------------------------|
----------------------------------------------------|
----------------------------------------------------|
----------------------------------------------------|  x2
-8888-5555--7p5p-7p5p-7p5p-7p5p-7-7-----------------|
-8888-5555--7p5p-7p5p-7p5p-7p5p-7-7-----------------|


ok this was my first tab and i got pretty bored doing it. so if u actually want me to 
this tab just tell me  through my youtube account or something.
http://www.youtube.com/shadowelite141
Добавлено: 15.05.2012
Другие материалы по этой песне:

Страница создана 15.05.2012
http://primanota.ru/horse-the-band/murder-chords.htm
Привет, Гость.
Предлагаем пройти революционный курс по гитаре.
Подарок от PrimaNota.Ru, забирай!