PrimaNota.ru - самый крупный в мире бесплатный архив песенных текстов, аккордов, табулатур и нот


Horse The Band - Lord Gold Throneroom - текст песни, таба, бас-таба, видео

Регистрация Запомнить меня
Войти через:  Facebook Google Twitter Vk Yandex Mail.ru

Horse The Band - Lord Gold Throneroom - текст песни, таба, бас-таба, видео

Печатать
Просмотров: 177
LORD GOLD THRONEROOM
As recorded by HORSE The Band
(From the 2005 Album THE MECHANICAL HAND)

Transcribed by Tom Wall
        

Words by Nathan Winneke Music by HORSE The Band

Gtr I (D A D G B E) - 'Distortion Guitar'
Gtr II (D A D G B E) - 'Clean Guitar'
Gtr III (D A D G B E) - 'Keyboard'

 Intro Orgy
  Q=145
  N.C.
 4/4
  Gtr III
  Wx4
|--------|
|--------|
|--------|
|--------|
|--------|
|--------|


   s  s  s  s  E  s  E     s  E  E  E    E  E  e  s  E     s  e  E  E
|-------------------------------------|-------------------------------|
|-15-15-15-15-15-15-15----15-15-15-15-|-15-17-17-17-17----17-17-17-17-|
|-15-15-15-15-15-15-15----15-15-15-15-|-15-18-18-18-18----18-18-18-18-|
|-------------------------------------|-------------------------------|
|-------------------------------------|-------------------------------|
|-17----------17-------17-------17----|-19----19-------19-------19----|
   q           q        q        q       q     q        q        q


   s  s  s  s  E  s  E     s  E  E  E    E  E  e  s  E     s  e  E  E
|----------------------------------17-|-17----------------------------|
|-18-18-18-18-18-18-18----18-18-20-18-|-18-18-18-18-18----18-18-18-18-|
|-19-19-19-19-19-19-19----19-19-21----|----17-17-17-17----17-17-17-17-|
|-------------------------------------|-------------------------------|
|-17----------17-------17-------17----|-------------------------------|
|-------------------------------------|-20----20-------20-------20----|
   q           q        q        q       q     q        q        q


   s  s  s  s  E  s  E     s  E  E  E    E  E  e  s  E     s  e  E  E
|-------------------------------------|-------------------------------||
|-15-15-15-15-15-15-15----15-15-15-15-|-15-17-17-17-17----17-17-17-17-||
|-15-15-15-15-15-15-15----15-15-15-15-|-15-18-18-18-18----18-18-18-18-||
|-------------------------------------|-------------------------------||
|-------------------------------------|-------------------------------||
|-17----------17-------17-------17----|-19----19-------19-------19----||
   q           q        q        q       q     q        q        q


   Verses I & II
    $
    N.C.
    Gtr II
     E     E     E  E     E     E  E  E    E  E  E  E     E     E  E  E
||--------------------------------------|-------------------------------|
||o-------------------------------------|----------------------13-------|
||--------14-------------------14-------|----14----14----------------12-|
||-----------------15----------------15-|-------------------------------|
||o-------------------------------------|-------------------------------|
||--12----------12-------12-------12----|-12----12-------12-------12----|
|
|   Gtr III
|    s  s  s  s  E  s  E     s  E  E  E    E  E  e  s  E     s  e  E  E
||-----------------------------------17-|-17----------------------------|
||o-18-18-18-18-18-18-18----18-18-20-18-|-18-18-18-18-18----18-18-18-18-|
||--19-19-19-19-19-19-19----19-19-21----|----17-17-17-17----17-17-17-17-|
||--------------------------------------|-------------------------------|
||o-17----------17-------17-------17----|-------------------------------|
||--------------------------------------|-20----20-------20-------20----|
     q           q        q        q       q     q        q        q


   E     E     E  E     E     E  E  E    E  E  E  E     E     E  E  E
|-------------------------------------|--------------------------------||
|-------------------------------------|-------------------------------o||
|--------7--------------------7-------|-----9-----------------9--------||
|-----------------8-----------------8-|----------10----------------10--||
|-------------------------------------|-------------------------------o||
|--8-----------8--------8--------8----|-10----10-------10-------10-----||
|
|  s  s  s  s  E  s  E     s  E  E  E    E  E  e  s  E     s  e  E  E
|-------------------------------------|--------------------------------||
|-15-15-15-15-15-15-15----15-15-15-15-|-15-17-17-17-17----17-17-17-17-o||
|-15-15-15-15-15-15-15----15-15-15-15-|-15-18-18-18-18----18-18-18-18--||
|-------------------------------------|--------------------------------||
|-------------------------------------|-------------------------------o||
|-17----------17-------17-------17----|-19----19-------19-------19-----||
   q           q        q        q       q     q        q        q


                                                                   G
     E     E     E E E E E E    E     E     E  E  E     E     E  E
||---------------------------|-------------------------------------|
||o--------------------------|-------------------------------------|
||---------------------------|-------------------------------------|
||---------5-------5---5---3-|--------7--------7-------10-------10-|
||o--------------------------|-------------------------------------|
||---5-----------5---5---3---|--7-----------7----10----------10----|
|
|    s  s  s  s  q   H          s  s  s  s  E  E  s  s  s  s  E  E
||---------------------------|----------------17----------------17-|
||o-18-18-18-18-18-----------|-17-17-17-17-17-17-17-17-17-17-17-17-|
||--19-19-19-19-19-----------|-18-18-18-18-18----18-18-18-18-18----|
||---------------------------|-------------------------------------|
||o--------------------------|-------------------------------------|
||---------------------------|-------------------------------------|


                           D.S.
  D5
 tr I
  PM------------------------|
  S S S S H.        S S S S H.
|-----------------|-----------------||
|-----------------|----------------o||
|-----------------|-----------------||
|-----------------|-----------------||
|-0-0-0-0-0-------|-0-0-0-0-0------o||
|-0-0-0-0-0-------|-0-0-0-0-0-------||
|
| W                 W
|-----------------|-----------------||
|-----------------|----------------o||
|-----------------|-----------------||
|-----------------|-----------------||
|-----------------|----------------o||
|-----------------|-----------------||


 Interlude
  N.C.
   S S  S S S S  S S  S S  S S S S  S S
|---------------------------------------|
|---------------------------------------|
|-10p7------9p7------10p7------9p7------|
|------10p7-----10p7------10p7-----10p7-|
|---------------------------------------|
|---------------------------------------|


   S S  S S S S  S S  S S  S S S S  S S
|---------------------------------------||
|---------------------------------------||
|-10p7------9p7------10p7------9p7------||
|------10p7-----10p7------10p7-----10p7-||
|---------------------------------------||
|---------------------------------------||


     S  S  S  S  S  S  S  S  S  S  S  S  S  S  S  S
||--------------------------------------------------|
||o-------------------------------------------------|
||--10p=7--------9p=7-------10p=7--------9p=7-------|
||--------10p=7-------10p=7-------10p=7-------10p=7-|
||o-------------------------------------------------|
||--------------------------------------------------|
|
|   Gtr III
|    S  S  S  S  S  S  S  S  S  S  S  S  S  S  S  S
||--17-15-------17----------17-15-------17----------|
||o-------18-15----18-17-15-------18-15----18-17-15-|
||--------------------------------------------------|
||--------------------------------------------------|
||o-------------------------------------------------|
||--------------------------------------------------|


   S  S  S  S  S  S  S  S  S  S  S  S  S  S  S  S   3x
|---------------------------------------------------||
|--------------------------------------------------o||
|-10p=7--------9p=7-------10p=7--------9p=7---------||
|-------10p=7-------10p=7-------10p=7-------10p=7---||
|--------------------------------------------------o||
|---------------------------------------------------||
|
|  S  S  S  S  S  S  S  S  S  S  S  S  S  S  S  S   3x
|-17-15-------17----------17-15-------17------------||
|-------18-15----18-17-15-------18-15----18-17-15--o||
|---------------------------------------------------||
|---------------------------------------------------||
|--------------------------------------------------o||
|---------------------------------------------------||


   Breakdown
    N.C.                     D5
                                PM|
     S  S  S +S   S  S  S  S Q  S S E
||------------------------------------|
||o-----------------------------------|
||------------------------------------|
||------------------------------------|
||o--8--7--5-(5)--7--5--3--5-0------0-|
||---------------------------0--0-0-0-|
|
|    S  S  S  S   S  S  S  S H
||--17-15--------17-------------------|
||o-------18-15-----18-17-15----------|
||------------------------------------|
||------------------------------------|
||o-----------------------------------|
||------------------------------------|


  N.C.
   S  S  S +S   S  S +E     S S S S S S S S
|-------------------------------------------|
|-------------------------------------------|
|-------------------------------------------|
|---------------------------x-x-x-x-x-x-x---|
|--8--7--5-(5)--7--5-(5)----x-x-x-x-x-x-x---|
|---------------------------x-x-x-x-x-x-x---|
|
|  S  S  S  S   S  S  S   S H
|-17-15--------17---------------------------|
|-------18-15-----18-17--15-----------------|
|-------------------------------------------|
|-------------------------------------------|
|-------------------------------------------|
|-------------------------------------------|


                          D5         N.C.                     Bb5F5
                             PM|
   S  S  S  S  S  S  S  S Q  S S E    S  S  S +S   S  S  S  S Q  Q
|----------------------------------|---------------------------------||
|----------------------------------|--------------------------------o||
|----------------------------------|---------------------------------||
|----------------------------------|---------------------------------||
|--8--7--5--0--7--5--3--0-0------0-|--8--7--5-(5)--7--5--3--7-8--3--o||
|-------------------------0--0-0-0-|--------------------------8--3---||
|
|  S  S  S  S  S  S  S  S H           S  S  S  S   S  S  S  S H
|-17-15-------17-------------------|-17-15--------17-----------------||
|-------18-15----18-17-15----------|-------18-15-----18-17-15-------o||
|----------------------------------|---------------------------------||
|----------------------------------|---------------------------------||
|----------------------------------|--------------------------------o||
|----------------------------------|---------------------------------||


 Interlude
  N.C.
  Gtr III
   E  e.      e.      e.      e.      E
|----------------------------15------17-|
|----15------17------18-----------------|
|----------------------------15------17-|
|----15------17------19-----------------|
|-17-----17------17------17------17-----|
|---------------------------------------|
   Q      E.      E.      E.      E.


   E  e.      e.      e.      e.      E
|----------------------------15------17-|
|----15------17------18-----------------|
|----------------------------15------17-|
|----15------17------19-----------------|
|-17-----17------17------17------17-----|
|---------------------------------------|
   Q      E.      E.      E.      E.


   E  e.      e.      e.      e.      E
|----20------18------17-----------------|
|----------------------------18------18-|
|----17------15------14-----------------|
|----------------------------15------15-|
|-15-----15------15------15------15-----|
|---------------------------------------|
|  Q      E.      E.      E.      E.
|
| Gtr I
|  W
|---------------------------------------|
|---------------------------------------|
|---------------------------------------|
|---------------------------------------|
|---------------------------------------|
|---------------------------------------|


   E   e.      e.      e.      e.            E
|-----20------18------17-----------------------------|
|-----------------------------18------------18-------|
|-----17------15------14-----------------------------|
|-----------------------------15------------15-------|
|-15------15------15------15------------15-----------|
|----------------------------------------------------|
|  Q       E.      E.      E.            E.
|
|  H.                              E.           S
|---------------------------------10-----------10----|
|---------------------------------13b15--------13b15-|
|----------------------------------------------------|
|----------------------------------------------------|
|----------------------------------------------------|
|----------------------------------------------------|


  Gtr I
   E  e.      e.      e.      e.      E
|---------------------------------------|
|---------------------------------------|
|----10-------9------10-----------------|
|----------------------------10------10-|
|---------------------------------------|
|---------------------------------------|
|
| Gtr III
|  E  e.      e.      e.      e.      E
|----------------------------15------17-|
|----15------17------18-----------------|
|----------------------------15------17-|
|----15------17------19-----------------|
|-17-----17------17------17------17-----|
|---------------------------------------|
   Q      E.      E.      E.      E.


   E  e.      e.      e.      e.      E
|---------------------------------------|
|---------------------------------------|
|----10-------9------10-----------------|
|----------------------------10------10-|
|---------------------------------------|
|---------------------------------------|
|
|  E  e.      e.      e.      e.      E
|----------------------------15------17-|
|----15------17------18-----------------|
|----------------------------15------17-|
|----15------17------19-----------------|
|-17-----17------17------17------17-----|
|---------------------------------------|
   Q      E.      E.      E.      E.


  Bb5
   S S  S  S  S   S  S  E      E      S  S  S   S S
|---------------------------------------------------|
|---------------------------------------------------|
|---------------------------------------------------|
|--8-8--x--8--8---8--x--8------8------8--8--8---8-8-|
|--8-8--x--8--8---8--x--8------8------8--8--8---8-8-|
|--8-8--x--8--8---8--x--8------8------8--8--8---8-8-|
|
|  E    e.        e.        e.        e.        E
|------20--------18--------17-----------------------|
|------------------------------------18--------18---|
|------17--------15--------14-----------------------|
|------------------------------------15--------15---|
|-15---------15--------15--------15--------15-------|
|---------------------------------------------------|
   Q          E.        E.        E.        E.


  C5
   S  S  S   S  S   S  S  E       E      S   S  S   S  S
|--------------------------------------------------------|
|--------------------------------------------------------|
|--------------------------------------------------------|
|-10-10--x--10-10--10--x-10------10-----10--10-10--10-10-|
|-10-10--x--10-10--10--x-10------10-----10--10-10--10-10-|
|-10-10--x--10-10--10--x-10------10-----10--10-10--10-10-|
|
|  E     e.         e.        e.         e.         E
|-------20---------18--------17--------------------------|
|---------------------------------------18---------18----|
|-------17---------15--------14--------------------------|
|---------------------------------------15---------15----|
|-15-----------15--------15---------15---------15--------|
|--------------------------------------------------------|
   Q            E.        E.         E.         E.


     N.C.
   E  e.      e.      e.      e.      E
|---------------------------------------|
|---------------------------------------|
|----10-------9------10-----------------|
|----------------------------10------10-|
|---------------------------------------|
|---------------------------------------|
|
|  E  e.      e.      e.      e.      E
|----------------------------15------17-|
|----15------17------18-----------------|
|----------------------------15------17-|
|----15------17------19-----------------|
|-17-----17------17------17------17-----|
|---------------------------------------|
   Q      E.      E.      E.      E.


   E  e.      e.      e.      e.      E
|---------------------------------------|
|---------------------------------------|
|----10-------9------10-----------------|
|----------------------------10------10-|
|---------------------------------------|
|---------------------------------------|
|
|  E  e.      e.      e.      e.      E
|----------------------------15------17-|
|----15------17------18-----------------|
|----------------------------15------17-|
|----15------17------19-----------------|
|-17-----17------17------17------17-----|
|---------------------------------------|
   Q      E.      E.      E.      E.


  Bb5
   S S  S  S  S   S  S  E      E      S  S  S   S S
|---------------------------------------------------|
|---------------------------------------------------|
|---------------------------------------------------|
|--8-8--x--8--8---8--x--8------8------8--8--8---8-8-|
|--8-8--x--8--8---8--x--8------8------8--8--8---8-8-|
|--8-8--x--8--8---8--x--8------8------8--8--8---8-8-|
|
|  E    e.        e.        e.        e.        E
|------20--------18--------17-----------------------|
|------------------------------------18--------18---|
|------17--------15--------14-----------------------|
|------------------------------------15--------15---|
|-15---------15--------15--------15--------15-------|
|---------------------------------------------------|
   Q          E.        E.        E.        E.


  C5
   S  S  S   S  S   S  S  E       E      S   Q
|------------------------------------------------------|
|------------------------------------------------------|
|------------------------------------------------------|
|-10-10--x--10-10--10--x-10------10-----10-------------|
|-10-10--x--10-10--10--x-10------10-----10--/8---------|
|-10-10--x--10-10--10--x-10------10-----10-------------|
|
|  E     e.         e.        e.         e.         E
|-------20---------18--------17------------------------|
|---------------------------------------18---------18--|
|-------17---------15--------14------------------------|
|---------------------------------------15---------15--|
|-15-----------15--------15---------15---------15------|
|------------------------------------------------------|
   Q            E.        E.         E.         E.


  D5
   H..                                  E
|-----------------------------------------|
|-----------------------------------------|
|-----------------------------------------|
|--0--------------------------------------|
|--0------------------------------------0-|
|--0------------------------------------0-|
|
|  E    e.      e.      e.      e.      E
|------------------------------15------17-|
|------15------17------18-----------------|
|------------------------------15------17-|
|------15------17------19-----------------|
|-17-------17------17------17------17-----|
|-----------------------------------------|
   Q        E.      E.      E.      E.


   E  H..
|----------------------------------------|
|----------------------------------------|
|----------------------------------------|
|----------------------------------------|
|--0-------------------------------------|
|--0-------------------------------------|
|
|  E  e.       e.      e.      e.      E
|-----------------------------15------17-|
|----15-------17------18-----------------|
|-----------------------------15------17-|
|----15-------17------19-----------------|
|-17------17------17------17------17-----|
|----------------------------------------|
   Q       E.      E.      E.      E.


  Bb5
   W
|---------------------------------------|
|---------------------------------------|
|---------------------------------------|
|--8------------------------------------|
|--8------------------------------------|
|--8------------------------------------|
|
|  E  e.      e.      e.      e.      E
|----20------18------17-----------------|
|----------------------------18------18-|
|----17------15------14-----------------|
|----------------------------15------15-|
|-15-----15------15------15------15-----|
|---------------------------------------|
   Q      E.      E.      E.      E.


     N.C.
                                        ~~~~
   E  e.      e.      e.       e.       E
|------------------------------------------|
|----------------------------[18]-----[18]-|
|----17------15------14--------------------|
|------------------------------------------|
|------------------------------------------|
|------------------------------------------|
|
|  E  e.      e.      e.       e.       E
|----20------18------17--------------------|
|-----------------------------18-------18--|
|----17------15------14--------------------|
|-----------------------------15-------15--|
|-15-----15------15------15-------15-------|
|------------------------------------------|
   Q      E.      E.      E.       E.


                                          Q
  D5
   H..                                  E
|-----------------------------------------|
|-----------------------------------------|
|-----------------------------------------|
|--0--------------------------------------|
|--0------------------------------------0-|
|--0------------------------------------0-|
|
|  E    e.      e.      e.      e.      E
|------------------------------15------17-|
|------15------17------18-----------------|
|------------------------------15------17-|
|------15------17------19-----------------|
|-17-------17------17------17------17-----|
|-----------------------------------------|
   Q        E.      E.      E.      E.


 =130
   E   H..
|-------------------------------------------|
|-------------------------------------------|
|-------------------------------------------|
|-------------------------------------------|
|--0----------------------------------------|
|--0----------------------------------------|
|
|  E   e.       e.      e.      e.      E
|-------------------------------------------|
|-----15-------17------17------17------15---|
|-------------------------------------------|
|-----15-------17------17------17------15---|
|-17-------17------17------17------17-------|
|-------------------------------------------|
   E.       E.      E.      E.      E.    S


  Q=145
  Bb5
   W
|---------------------------------------|
|---------------------------------------|
|---------------------------------------|
|--8------------------------------------|
|--8------------------------------------|
|--8------------------------------------|
|
|  E  e.      e.      e.      e.      E
|----20------18------17-----------------|
|----------------------------18------18-|
|----17------15------14-----------------|
|----------------------------15------15-|
|-15-----15------15------15------15-----|
|---------------------------------------|
   Q      E.      E.      E.      E.


     N.C.
                                       ~~~~
   E  e.      e.      e.      e.       E
|-----------------------------------------||
|-----------------------------------------||
|----17------15------14-------------------||
|----------------------------15------[15]-||
|-----------------------------------------||
|-----------------------------------------||
|
|  E  e.      e.      e.      e.       E
|----20------18------17-------------------||
|----------------------------18-------18--||
|----17------15------14-------------------||
|----------------------------15-------15--||
|-15-----15------15------15------15-------||
|-----------------------------------------||
   Q      E.      E.      E.      E.


 Bridge
  N.C.                    D5    C5  N.C.
  S S S S S S S S S S S S E  a  E   S S S S S S S S S S S S Q
|---------------------------------|----------------------------|
|---------------------------------|----------------------------|
|---------------------------------|----------------------------|
|-------------------------7-(7)s5-|----------------------------|
|-5-5-5-5-5-5-5-5-5-5-5-5-5-(5)s3-|-5-5-5-5-5-5-5-5-7-7-7-7-8--|
|---------------------------------|----------------------------|


                                          C5  Bb5A5 F5
  S S S S S S S S S S S S S S S S    S  S  E. E. E. E. E
|---------------------------------|----------------------||
|---------------------------------|----------------------||
|---------------------------------|----------------------||
|---------------------------------|----------------------||
|---------------------------------|-------10--8--7--3--3-||
|-8-8-8-8-8-8-8-8-8-8-8-8-8-8-8-8-|-10-10-10--8--7--3--3-||


   Verse IV
    N.C.                          D5    C5
     S S S S  S S S S   S  S  S S E  a   E
||-----------------------------------------|
||o----------------------------------------|
||-----------------------------------------|
||--------------------------------7-(7)s=5-|
||o--5-5-5-5--5-5-5-5---5--5--5-5-5-(5)s=3-|
||-----------------------------------------|
|
|   Gtr III
|    Q        Q         E     Q          E
||-----------------------------------------|
||o-18-------15--------17----13---------15-|
||--19-------14-------(14)---14---------14-|
||--15-------12-------(12)---12---------12-|
||o----------------------------------------|
||-----------------------------------------|


  N.C.
    S  S S S S S S S S S S S S S S S
|------------------------------------|
|------------------------------------|
|------------------------------------|
|------------------------------------|
|---5--5-5-5-5-5-5-5-7-7-7-7-8-8-8-8-|
|------------------------------------|
|
|  +W
|------------------------------------|
|------------------------------------|
|------------------------------------|
|-(12)-------------------------------|
|------------------------------------|
|------------------------------------|


                                          1.                        2.
                                                 C5  Bb5A5 F5
   S S S S  S S S S   S  S  S  S S S S S    S  S  E. E. E. E. E      W
|----------------------------------------|------------------------||------||
|----------------------------------------|-----------------------o||------||
|----------------------------------------|------------------------||------||
|----------------------------------------|------------------------||------||
|----------------------------------------|-------10--8--7--3--3--o||------||
|--8-8-8-8--8-8-8-8---8--8--8--8-8-8-8-8-|-10-10-10--8--7--3--3---||------||
|
|  Q        Q         E     Q.              W                        W
|----------------------------------------|-17---------------------||------||
|-18-------15--------17----13------------|-15--------------------o||------||
|-19-------14-------(14)---14------------|------------------------||------||
|-15-------12-------(12)---12------------|------------------------||------||
|----------------------------------------|-----------------------o||------||
|----------------------------------------|------------------------||------||


   Interlude
    N.C.
     PM------------------|         PM       PM
     S  S  S  S  S  S  S  S  S  S  S  S  S  S  S  S
||--------------------------------------------------|
||o-------------------------------------------------|
||--------------------------------------------------|
||--------------------------------------------------|
||o--------------------------5--7-----7--5-----7--8-|
||---8--8--8--8--8--8--8--8--------8--------8-------|
|
|    S  S  S  S  S  S  S  S  S  S  S  S  S  S  S  S
||--------------------------------------------------|
||o-------15----17-18-------15----17-18-------15----|
||-----------------------------------------------17-|
||--17-17----17-------17-17----17-------17-17-------|
||o-------------------------------------------------|
||--------------------------------------------------|


   PM------------------|
   E     S  S  S  S  S  S  S.    S.     S.    S.     E
|----------------------------------------------------------|
|----------------------------------------------------------|
|----------------------------------------------------------|
|----------------------------------------------------------|
|--------------------------5-----7------5-----7------8-----|
|--0-----0--0--0--0--0--0----------------------------------|
|
|  S  S  S  S  S  S  S  S  S   S     S  S   S     S  S  S
|----------------------------------------------------------|
|-------15----17-18-------15--------17-18-----------15-----|
|------------------------------------------------------17--|
|----------------------------------------------------------|
|-17-17----17-------17-17-----17-----------17----17--------|
|----------------------------------------------------------|


   PM|
   S  S  S  S  S  S  S  S  S  S  S  S  S  S  S  S
|-------------------------------------------------|
|-------------------------------------------------|
|-------------------------------------------------|
|--------7--8-------------------------------------|
|--------------8--7--------5-----5-----5-----8--5-|
|--8--8--------------0--0-----0-----0-----0-------|
|
|  S  S  S  S  S  S  S  S  S  S  S  S  S  S  S  S
|-------------------------------------------------|
|-------15----17-18-------15----17-18-------15----|
|----------------------------------------------17-|
|-17-17----17-------17-17----17-------17-17-------|
|-------------------------------------------------|
|-------------------------------------------------|


 1.                                                          2.
   PM------------------|                                      PM------------|
   S  S  S  S  S  S  S  S  S.    S.     S  S.    S.     S     S S S S S S S S S. S. S S. S. S
|----------------------------------------------------------||---------------------------------|
|---------------------------------------------------------o||---------------------------------|
|----------------------------------------------------------||---------------------------------|
|----------------------------------------------------------||---------------------------------|
|---------------------------------------------------------o||---------------------------------|
|--3--3--3--3--3--3--3--3--0-----2------3--0-----2------3--||-3-3-3-3-3-3-3-3-0--2--3-0--2--3-|
|
|  S  S  S  S  S  S  S  S  S   S     S  S  S   S     S  S     W
|----------------------------------------------------------||---------------------------------|
|-------15----17-18-------15--------17-18-----------15----o||---------------------------------|
|------------------------------------------------------17--||---------------------------------|
|----------------------------------------------------------||---------------------------------|
|-17-17----17-------17-17-----17----------17--17----------o||---------------------------------|
|----------------------------------------------------------||---------------------------------|


    N.C.
     PM|               PM|               PM|
     S  S  S  S  S  S  S  S  S  S  S  S  S  S  S S
||-------------------------------------------------|
||o------------------------------------------------|
||-------------------------------------------------|
||-------------------------------------------------|
||o--------5--7--5--7--------7--8--7--8--------5-7-|
||---8--8--------------8--8--------------8--8------|
|
|    S  S  S  S  S  S  S  S  S  S  S  S  S  S  E
||-------------------------------------------------|
||o-------17-18----17-18----18----17-18----18------|
||--------------------------------------------17---|
||--17-17-------17-------17----17-------17---------|
||o------------------------------------------------|
||-------------------------------------------------|


  D5
  PM----------------------------|
  S S S S S S S S S S S S S S S S
|-----------------------------------||
|----------------------------------o||
|-----------------------------------||
|-----------------------------------||
|-0-0-0-0-0-0-0-0-0-0-0-0-0-0-0-0--o||
|-0-0-0-0-0-0-0-0-0-0-0-0-0-0-0-0---||
|
| W
|-----------------------------------||
|----------------------------------o||
|-----------------------------------||
|-----------------------------------||
|----------------------------------o||
|-----------------------------------||


  N.C.
   PM|               PM|               PM|
   S  S  S  S  S  S  S  S  S  S  S  S  S  S  S S
|------------------------------------------------|
|------------------------------------------------|
|------------------------------------------------|
|------------------------------------------------|
|--------5--7--5--7--------7--8--7--8--------5-7-|
|--8--8--------------8--8--------------8--8------|
|
|  S  S  S  S  S  S  S  S  S  S  S  S  S  S  E
|------------------------------------------------|
|-------17-18----17-18----18----17-18----18------|
|-------------------------------------------17---|
|-20-20-------20-------20----20-------20---------|
|------------------------------------------------|
|------------------------------------------------|


  D5
   PM------------------------------------------|
   S  S  S  S  S  S  S  S  S  S  S  S  S  S  S S
|------------------------------------------------|
|------------------------------------------------|
|------------------------------------------------|
|------------------------------------------------|
|--0--0--0--0--0--0--0--0--0--0--0--0--0--0--0-0-|
|--0--0--0--0--0--0--0--0--0--0--0--0--0--0--0-0-|
|
|  S  S  S  S  S  S  S  S  S  S  S  S  S  S  E
|------------------------------------------------|
|-------17-18----17-18----18----17-18----18------|
|-------------------------------------------17---|
|-19-19-------19-------19----19-------19---------|
|------------------------------------------------|
|------------------------------------------------|


  N.C.
   PM|               PM|               PM|
   S  S  S  S  S  S  S  S  S  S  S  S  S  S  S S
|------------------------------------------------|
|------------------------------------------------|
|------------------------------------------------|
|------------------------------------------------|
|--------5--7--5--7--------7--8--7--8--------5-7-|
|--8--8--------------8--8--------------8--8------|
|
|  S  S  S  S  S  S  S  S  S  S  S  S  S  S  E
|------------------------------------------------|
|-------17-18----17-18----18----17-18----18------|
|-------------------------------------------17---|
|-20-20-------20-------20----20-------20---------|
|------------------------------------------------|
|------------------------------------------------|


  S S S S S S S S S  S S  S  E E
|--------------------------------||
|--------------------------------||
|--------------------------------||
|-----5-7---5-----8-10------/7---||
|-5-7-----8---5-7------8-10----5-||
|--------------------------------||
|
| W
|--------------------------------||
|--------------------------------||
|--------------------------------||
|--------------------------------||
|--------------------------------||
|--------------------------------||


   Verse V
    Q=75
    N.C.                                   D5
     PM|          PM|           PM|          PM-----------------------------|
     T T T T  T T T T  T T  T T T T   T  T   T  T T T T T T T T T T T T T T T
||----------------------------------------------------------------------------|
||o---------------------------------------------------------------------------|
||----------------------------------------------------------------------------|
||----------------------------------------------------------------------------|
||o------5-7--5-7------7-8--7-8-------5--7---0--0-0-0-0-0-0-0-0-0-0-0-0-0-0-0-|
||---8-8----------8-8-----------8-8----------0--0-0-0-0-0-0-0-0-0-0-0-0-0-0-0-|
|
|    E        E        S    E         S     +H
||----------------------------------------------------------------------------|
||o-18-------15-------17---13--------15----(15)-------------------------------|
||--19-------14-------14---14-------(14)---(14)-------------------------------|
||--15-------12-------12---12-------(12)---(12)-------------------------------|
||o-13----------------12------------------------------------------------------|
||----------------------------------------------------------------------------|
     Q                 Q                     H


  N.C.                                   D5
   PM|          PM|           PM|          PM-----------------------------|
   T T T T  T T T T  T T  T T T T   T  T   T  T T T T T T T T T T T T T T T
|-----------------------------------------------------------------------------||
|----------------------------------------------------------------------------o||
|-----------------------------------------------------------------------------||
|-----------------------------------------------------------------------------||
|------5-7--5-7------7-8--7-8-------5--7---0--0-0-0-0-0-0-0-0-0-0-0-0-0-0-0--o||
|--8-8----------8-8-----------8-8----------0--0-0-0-0-0-0-0-0-0-0-0-0-0-0-0---||
|
|  E        E        S    E         S      H
|-----------------------------------------17----------------------------------||
|-18-------15-------17---13--------15-----15---------------------------------o||
|-19-------14-------14---14-------(14)---(14)---------------------------------||
|-15-------12-------12---12-------(12)---(12)---------------------------------||
|-13----------------12-------------------------------------------------------o||
|-----------------------------------------------------------------------------||
   Q                 Q                     H


 Outro
  Dm/D5 A5/Am/D5 Dm/F             Dm/D5 A5/Am/D5
  Gtr III
   E  E  S  E  S  H                E  E  S  E  S  H
|-------------------------------|----------------17-------------|
|-18-15-17-13-15-15-------------|-18-15-17-13-15-15-------------|
|-19-14-14-14-14-14-------------|-19-14-14-14-14-14-------------|
|-15-12-12-12-12-15-------------|-15-12-12-12-12-12-------------|
|-13----12----------------------|-13----12----------------------|
|----------------12-12-12-12-12-|----------------12-12-12-12-12-|
   Q     Q        E  E  E  E  E    Q     Q        E  E  E  E  E
                  |--3--|                         |--3--|


  Dm/(D)         Dm/F
   E  E  S  E  S  H
|-------------------------------|
|-18-15-17-13-15-15-------------|
|-19-14-14-14-14-14-------------|
|-15-12-12-12-12-15-------------|
|-13----12----------------------|
|----------------12-12-12-12-12-|
   Q     Q        E  E  E  E  E
                  |--3--|


  Dm/(D)               N.C.
                        |---3----|
   E   E   S   E    S   E   E    E   +E.  S     H.        Q
|----------------------20-(20)-(20)-(20)-20s=|=17-------(17)--|
|-18--15--17--13---15------------------------|----------------|
|-19--14--14--14---14------------------------|----------------|
|-15--12--12--12---12---0---0----0---(0)-(0)-|-(0)-------(0)--|
|-13-(13)-12-(12)-(12)-----------------------|----------------|
|-----------------------0---0----0---(0)-(0)-|-(0)-------(0)--|


  Q=70
                                           <
   W           +W                          W
|------------|---------------------------|-8-------------------------------|
|------------|---------------------------|---------------------------------|
|------------|---------------------------|---------------------------------|
|-(0)--------|-(0)-----------------------|---------------------------------|
|------------|---------------------------|---------------------------------|
|--3---------|-(3)-----------------------|---------------------------------|
|
| Gtr I
|                   <
|  W            Q   S S S S +Q   S S S S   S S S S +E  S S S S +E  S S S S
|------------|---------------------------|---------------------------------|
|------------|---------------------------|---------------------------------|
|------------|---------------------------|---------------------------------|
|------------|----------2-3-(3)------2-3-|-----2-3-(3)-----2-3-(3)-----2-3-|
|------------|--------3------------3-----|---3-----------3-----------3-----|
|------------|------0------------0-------|-3-----------5-----------5-------|


   <                <                  <                         <
   H                H                  H.                        Q
|-10--------------------------------|------------------------------------|
|------------------13---------------|------------------------------------|
|-----------------------------------|-14------------------------15-------|
|-----------------------------------|------------------------------------|
|-----------------------------------|------------------------------------|
|-----------------------------------|------------------------------------|
|
|  S S S S +E  S S  S S +E  S S S S    S  S S S +E  S S S S +E   S S S S
|-----------------------------------|------------------------------------|
|-----------------------------------|------------------------------------|
|-----------------------------------|------------------------------------|
|------2-3-(3)------2-3-(3)-----2-3-|-------2-3-(3)-----2-3-(3)------2-3-|
|----3-----------3------------3-----|-----3-----------3------------3-----|
|--0-----------0------------0-------|--3------------5------------5-------|


   <                                  <
   W                                  W
|----------------------------------|-10-------------------------------|
|-13-------------------------------|----------------------------------|
|----------------------------------|----------------------------------|
|----------------------------------|----------------------------------|
|----------------------------------|----------------------------------|
|----------------------------------|----------------------------------|
|
|  S S S S +E  S S S S +E  S S S S    S S S S +E  S S S S +E  S S S S
|----------------------------------|----------------------------------|
|----------------------------------|----------------------------------|
|----------------------------------|----------------------------------|
|------2-3-(3)-----2-3-(3)-----2-3-|------2-3-(3)-----2-3-(3)-----2-3-|
|----3-----------3-----------3-----|----3-----------3-----------3-----|
|--0-----------0-----------0-------|--3-----------5-----------5-------|


   <                         <          <
   H.                        Q          W
|------------------------------------|----------------------------------|
|------------------------------------|-13-------------------------------|
|-14------------------------15-------|----------------------------------|
|------------------------------------|----------------------------------|
|------------------------------------|----------------------------------|
|------------------------------------|----------------------------------|
|
|  S  S S S +E  S S S S +E   S S S S    S S S S +E  S S S S +E  S S S S
|------------------------------------|----------------------------------|
|------------------------------------|----------------------------------|
|------------------------------------|----------------------------------|
|-------2-3-(3)-----2-3-(3)------2-3-|------2-3-(3)-----2-3-(3)-----2-3-|
|-----3-----------3------------3-----|----3-----------3-----------3-----|
|--0------------0------------0-------|--3-----------5-----------5-------|


   <                <                  <                <        <
   H                H                  H                Q        Q
|-10--------------------------------|------------------------------------|
|------------------13---------------|---------------------------13-------|
|-----------------------------------|-14---------------15----------------|
|-----------------------------------|------------------------------------|
|-----------------------------------|------------------------------------|
|-----------------------------------|------------------------------------|
|
|  S S S S +E  S S  S S +E  S S S S    S S S S +E  S S  S S +E   S S S S
|-----------------------------------|------------------------------------|
|-----------------------------------|------------------------------------|
|-----------------------------------|------------------------------------|
|------2-3-(3)------2-3-(3)-----2-3-|------2-3-(3)------2-3-(3)------2-3-|
|----3-----------3------------3-----|----3-----------3-------------3-----|
|--0-----------0------------0-------|--3-----------5-------------5-------|


   <                                  <                <
   W                                  H                H
|----------------------------------|-10--------------------------------|
|-13-------------------------------|------------------13---------------|
|----------------------------------|-----------------------------------|
|-14-------------------------------|-----------------------------------|
|----------------------------------|-----------------------------------|
|----------------------------------|-----------------------------------|
|
|  S S S S +E  S S S S +E  S S S S    S S S S +E  S S  S S +E  S S S S
|----------------------------------|-----------------------------------|
|----------------------------------|-----------------------------------|
|----------------------------------|-----------------------------------|
|------2-3-(3)-----2-3-(3)-----2-3-|------2-3-(3)------2-3-(3)-----2-3-|
|----3-----------3-----------3-----|----3-----------3------------3-----|
|--0-----------0-----------0-------|--3-----------5------------5-------|


   <                <        <          <
   H                Q        Q          W
|------------------------------------|----------------------------------|
|---------------------------13-------|-13-------------------------------|
|-14---------------15----------------|----------------------------------|
|------------------------------------|-14-------------------------------|
|------------------------------------|----------------------------------|
|------------------------------------|----------------------------------|
|
|  S S S S +E  S S  S S +E   S S S S    S S S S +E  S S S S +E  S S S S
|------------------------------------|----------------------------------|
|------------------------------------|----------------------------------|
|------------------------------------|----------------------------------|
|------2-3-(3)------2-3-(3)------2-3-|------2-3-(3)-----2-3-(3)-----2-3-|
|----3-----------3-------------3-----|----3-----------3-----------3-----|
|--0-----------0-------------0-------|--3-----------5-----------5-------|


   <                <                  <                <        <
   H                H                  H                Q        Q
|-10--------------------------------|------------------------------------|
|------------------13---------------|---------------------------13-------|
|-----------------------------------|-14---------------15----------------|
|-----------------------------------|------------------------------------|
|-----------------------------------|------------------------------------|
|-----------------------------------|------------------------------------|
|
|  S S S S +E  S S  S S +E  S S S S    S S S S +E  S S  S S +E   S S S S
|-----------------------------------|------------------------------------|
|-----------------------------------|------------------------------------|
|-----------------------------------|------------------------------------|
|------2-3-(3)------2-3-(3)-----2-3-|------2-3-(3)------2-3-(3)------2-3-|
|----3-----------3------------3-----|----3-----------3-------------3-----|
|--0-----------0------------0-------|--3-----------5-------------5-------|


   <
   W
|----------------------------------|
|-13-------------------------------|
|----------------------------------|
|-14-------------------------------|
|----------------------------------|
|----------------------------------|
|
|  S S S S +E  S S S S +E  S S S S
|----------------------------------|
|----------------------------------|
|----------------------------------|
|------2-3-(3)-----2-3-(3)-----2-3-|
|----3-----------3-----------3-----|
|--0-----------0-----------0-------|


   <
   W                                  +W              +W
|----------------------------------|---------------|---------*|
|----------------------------------|---------------|---------*|
|-11-------------------------------|-(11)----------|-(11)----*|
|----------------------------------|---------------|---------*|
|----------------------------------|---------------|---------*|
|----------------------------------|---------------|---------*|
|
|  S S S S +E  S S S S +E  S S S S     q   H.          W
|----------------------------------|---------------|---------*|
|----------------------------------|---------------|---------*|
|----------------------------------|---------------|---------*|
|------2-3-(3)-----2-3-(3)-----2-3-|---------------|---------*|
|----3-----------3-----------3-----|---------------|---------*|
|--3-----------5-----------5-------|---0-----------|---------*|



Duration Legend
---------------
W - whole; H - half; Q - quarter; E - 8th; S - 16th; T - 32nd; X - 64th; a - acciaccatura
+ - note tied to previous; . - note dotted; .. - note double dotted
Uncapitalized letters represent notes that are staccato (1/2 duration)
Irregular groupings are notated above the duration line
Duration letters will always appear directly above the note/fret number it represents the
duration for.  Duration letters with no fret number below them represent rests.  Multi-
bar rests are notated in the form Wxn, where n is the number of bars to rest for.  Low
melody durations appear below the staff

Tablature Legend
----------------
 h   - hammer-on
 p   - pull-off
 b   - bend
 pb  - pre-bend
 r   - bend release (if no number after the r, then release immediately)
 /\  - slide into or out of (from/to "nowhere")
 s   - legato slide
 S   - shift slide
 - natural harmonic
[n]  - artificial harmonic
n(n) - tapped harmonic
 ~   - vibrato
 tr  - trill
 T   - tap
 TP  - trem. picking
 PM  - palm muting
\n/  - tremolo bar dip; n = amount to dip
 \n  - tremolo bar down
 n/  - tremolo bar up
/n\  - tremolo bar inverted dip
 =   - hold bend; also acts as connecting device for hammers/pulls
 <> - volume swell (louder/softer)
 x   - on rhythm slash represents muted slash
 o   - on rhythm slash represents single note slash

Misc Legend
-----------
 |  - bar
||  - double bar
||o - repeat start
o|| - repeat end
*|  - double bar (ending)
 :  - bar (freetime)
 $  - Segno
 &  - Coda
Tempo markers -  = BPM(8/16=s8/s16), where s8 = swing 8ths, s16 = swing 16ths

Добавлено: 08.05.2012
Другие материалы по этой песне:

Страница создана 05.04.2012
http://primanota.ru/horse-the-band/lord-gold-throneroom-chords.htm
Привет, Гость.
Предлагаем пройти революционный курс по гитаре.
Подарок от PrimaNota.Ru, забирай!