PrimaNota.ru - самый крупный в мире бесплатный архив песенных текстов, аккордов, табулатур и нот


Horse The Band - In The Wake Of The Bunt - текст песни, таба, бас-таба, видео

Регистрация Запомнить меня
Войти через:  Facebook Google Twitter Vk Yandex Mail.ru

Horse The Band - In The Wake Of The Bunt - текст песни, таба, бас-таба, видео

Печатать
Просмотров: 161
IN THE WAKE OF THE BUNT
As recorded by HORSE The Band
(From the 2003 Album R. BORLAX)

Transcribed by Tom Wall
        

Words and Music by HORSE The Band

Gtr I (D A D G B E) - 'Guitar'
Gtr II (D A D G B E) - 'Keyboard'

 Intro
  Q=125
  N.C.
 4/4
  Gtr II
  S  S  S  S  S   +S   S  S     S  S  S    S  T  S  S    S  T
|-------------------------------------------------------------|
|------14----15--(15)----14----------14---------15-14---------|
|---14----14----------14----------14------14------------14----|
|------------16-------------16------------16------------16----|
|-------------------------------------------------------------|
|-------------------------------------------------------------|
  Q           E.          T  E.         T  E.         T  S.


    S   S    S  S      S  +S   S    S  S  S  S      S T  S  S     S T
|----------------------------------------------------------------------|
|-----------14--------15-(15)------14-------14----------15-14----------|
|------14------14-------------14---------14--------14------------14----|
|-(16)-----------------------------------------14-------------14-------|
|-----------------17---------------17----------------------------------|
|----------------------------------------------------------------------|
   +S.    E        E.            T  E.       T  E.          T  E


      S       S  S  S  S   +S   S  S     S  S  S    S  T  S  S    S  T
||---------------------------------------------------------------------|
||o-------------14----15--(15)----14----------14---------15-14---------|
||-----------14----14----------14----------14------14------------14----|
||--(14)--------------16-------------16------------16------------16----|
||o--------------------------------------------------------------------|
||---------------------------------------------------------------------|
     +T  E..           E.          T  E.         T  E.         T  S.


    S   S    S  S      S  +S   S    S  S  S  S      S T  S  S     S T   3x
|-----------------------------------------------------------------------||
|-----------14--------15-(15)------14-------14----------15-14----------o||
|------14------14-------------14---------14--------14------------14-----||
|-(16)-----------------------------------------14-------------14--------||
|-----------------17---------------17----------------------------------o||
|-----------------------------------------------------------------------||
   +S.    E        E.            T  E.       T  E.          T  E


   Verse 1
    Q=135
    N.C.
    Gtr I
      E          E     S    e      E        S  E       S    S    S     S
||----4----------4-----4----4------4--------4--4-------4----4----4-----4---|
||o---x----------x-----x----x------x--------x--x-------x----x----x-----x---|
||----x----------x-----x----x------x--------x--x-------x----x----x-----x---|
||----4----------4-----4----4------4--------4--4-------4----4----4-----4---|
||o------------------------------------------------------------------------|
||-------------------------------------------------------------------------|
|
|   Gtr II
|     S       S  S  S  S   +S   S  S     S  S  S    S  T  S    S    S    T
||-------------------------------------------------------------------------|
||o-------------14----15--(15)----14----------14---------15---14-----------|
||-----------14----14----------14----------14------14--------------14------|
||--(14)--------------16-------------16------------16--------------16------|
||o------------------------------------------------------------------------|
||-------------------------------------------------------------------------|
     +T  E..           E.          T  E.         T  E.           T  S.


    E        E         S   e        E     S  E        S    S     S    S    4x
|---4--------4---------4---4--------4-----4--4--------4----4-----4----4----||
|---x--------x---------x---x--------x-----x--x--------x----x-----x----x---o||
|---x--------x---------x---x--------x-----x--x--------x----x-----x----x----||
|---4--------4---------4---4--------4-----4--4--------4----4-----4----4----||
|-------------------------------------------------------------------------o||
|--------------------------------------------------------------------------||
|
|   S   S    S  S      S  +S   S    S  S  S  S      S T  S    S     S   T  4x
|--------------------------------------------------------------------------||
|-----------14--------15-(15)------14-------14----------15---14-----------o||
|------14------14-------------14---------14--------14--------------14------||
|-(16)-----------------------------------------14---------------14---------||
|-----------------17---------------17-------------------------------------o||
|--------------------------------------------------------------------------||
   +S.    E        E.            T  E.       T  E.            T  E


 Chorus
  Q=97
  F#5                                                                     F#madd9
                                                                         2/4
                                                                          TP
   Q   Q   Q   Q     Q   Q   Q   Q     Q   Q   Q   Q     Q   Q   Q   Q    H
|-----------------|-----------------|-----------------|-----------------|-4----|
|-----------------|-----------------|-----------------|-----------------|-2----|
|-----------------|-----------------|-----------------|-----------------|-2----|
|-----------------|-----------------|-----------------|-----------------|-4----|
|--4---4---4---4--|--4---4---4---4--|--4---4---4---4--|--4---4---4---4--|------|
|--4---4---4---4--|--4---4---4---4--|--4---4---4---4--|--4---4---4---4--|------|
|
|  Q   Q   Q   Q     Q   Q   Q   Q     Q   Q   Q   Q     Q   Q   Q   Q    W
|-----------------|-----------------|-----------------|-----------------|------|
|-19--19--19--19--|-19--19--19--19--|-19--19--19--19--|-19--19--19--19--|------|
|-18--18--18--18--|-18--18--18--18--|-18--18--18--18--|-18--18--18--18--|------|
|-----------------|-----------------|-19--19--19--19--|-19--19--19--19--|------|
|-----------------|-----------------|-----------------|-----------------|------|
|-----------------|-----------------|-----------------|-----------------|------|


 Verse 2
  Q=100
  $
  N.C.
 4/4
   e  S  E  S  e  e  S  E   S  E    e  S  E  S  e  e  S  E  S  E
|----------------------10--10----|-----------------------9--9----|
|--------9--9--7-----------------|--------9--9--7--------------9-|
|------------------------------9-|-------------------------------|
|-----------------7--7-----------|-----------------7--7----------|
|--9--9--------------------------|--9--9-------------------------|
|--------------------------------|-------------------------------|
|
|  e.    e.    E  e.    e.     E    e.    e.    E  e.    e.    E
|--------------------------------|-------------------------------|
|--------------------------------|-------------------------------|
|-14----14----14-14----14-----14-|-14----14----14-14----14----14-|
|-18----18----18-18----18-----18-|-18----18----18-18----18----18-|
|--------------------------------|-------------------------------|
|--------------------------------|-------------------------------|


   E.  E.  H     E       E.  E.  T S.      E. E +S    +S  +S
|---------------------|------------------------------------------|
|----------5-----5----|-----------------------5-(5)b6r(5)-(5)b6--|
|---------------------|------4---2-4-----------------------------|
|------7--------------|------------------------------------------|
|--5------------------|------------------------------------------|
|---------------------|--2-----------------2---------------------|
|
|  E.  E.  H     S  S    E.  E.  S     S  +H
|---------------------|------------------------------------------|
|-15--14--------------|-15--14-----------------------------------|
|---------14----------|---------14----16-(16)--------------------|
|---------------14-16-|------------------------------------------|
|---------------------|------------------------------------------|
|---------------------|------------------------------------------|


   |--3--|                |--3--|                   |--3--|              |--3--|
   S  S +s  +s   E  S  e  S  S +S  +s   E   S  E    S  S +s  S  E  S  e  S  S +S  +s   E  S  E
|--------------------------------------10--10----|-------------------------------------9--9----|
|----------------9--9--7-------------------------|--------------9--9--7----------------------9-|
|----------------------------------------------9-|-----------------------7--7-(7)-(7)----------|
|-------------------------7--7-(7)-(7)-----------|---------------------------------------------|
|--9--9-(9)-(9)----------------------------------|--9--9-(9)-----------------------------------|
|------------------------------------------------|---------------------------------------------|
|
|  e.            e.    E  e.            e.     E    e.          e.    E  e.            e.    E
|------------------------------------------------|---------------------------------------------|
|------------------------------------------------|---------------------------------------------|
|-14------------14----14-14------------14-----14-|-14----------14----14-14------------14----14-|
|-18------------18----18-18------------18-----18-|-18----------18----18-18------------18----18-|
|------------------------------------------------|---------------------------------------------|
|------------------------------------------------|---------------------------------------------|


                                       To Coda
   E.  E.  H     E       E.  E.  E      E. Q  s
|---------------------|---------------------------|
|----------5-----5----|----------5---------5--5---|
|---------------------|------4--------------------|
|------7--------------|---------------------------|
|--5------------------|---------------------------|
|---------------------|--2--------------2---------|
|
|  E.  E.  H     S  S    E.  E.  S  S  +H
|---------------------|---------------------------|
|-15--14--------------|-15--14--------------------|
|---------14----------|---------14-16-(16)--------|
|---------------14-16-|---------------------------|
|---------------------|---------------------------|
|---------------------|---------------------------|


   Verse 3
    Q=135
    N.C.
     E         E     S    e      E        S  E       S    S    S     S
||---4---------4-----4----4------4--------4--4-------4----4----4-----4---|
||o--x---------x-----x----x------x--------x--x-------x----x----x-----x---|
||---x---------x-----x----x------x--------x--x-------x----x----x-----x---|
||---4---------4-----4----4------4--------4--4-------4----4----4-----4---|
||o----------------------------------------------------------------------|
||-----------------------------------------------------------------------|
|
|    S      S  S  S  S   +S   S  S     S  S  S    S  T  S    S    S    T
||-----------------------------------------------------------------------|
||o-----------14----15--(15)----14----------14---------15---14-----------|
||---------14----14----------14----------14------14--------------14------|
||--14--------------16-------------16------------16--------------16------|
||o----------------------------------------------------------------------|
||-----------------------------------------------------------------------|
     T E..           E.          T  E.         T  E.           T  S.


    E        E         S   e        E     S  E        S    S     S    S
|---4--------4---------4---4--------4-----4--4--------4----4-----4----4----||
|---x--------x---------x---x--------x-----x--x--------x----x-----x----x---o||
|---x--------x---------x---x--------x-----x--x--------x----x-----x----x----||
|---4--------4---------4---4--------4-----4--4--------4----4-----4----4----||
|-------------------------------------------------------------------------o||
|--------------------------------------------------------------------------||
|
|   S   S    S  S      S  +S   S    S  S  S  S      S T  S    S     S   T
|--------------------------------------------------------------------------||
|-----------14--------15-(15)------14-------14----------15---14-----------o||
|------14------14-------------14---------14--------14--------------14------||
|-(16)-----------------------------------------14---------------14---------||
|-----------------17---------------17-------------------------------------o||
|--------------------------------------------------------------------------||
   +S.    E        E.            T  E.       T  E.            T  E


                    H.=H
  Wx3          H    H
|------------|-----------|
|------------|-----------|
|------------|-----------|
|------------|-----------|
|------------|-----------|
|------------|-----------|


 Chorus
  Q=97
  F#5
   Q   Q   Q   Q     Q   Q   Q   Q
|-----------------|-----------------|
|-----------------|-----------------|
|-----------------|-----------------|
|-----------------|-----------------|
|--4---4---4---4--|--4---4---4---4--|
|--4---4---4---4--|--4---4---4---4--|
|
| Gtr II
|  Q   Q   Q   Q     Q   Q   Q   Q
|-----------------|-----------------|
|-----------------|-----------------|
|-18--18--18--18--|-18--18--18--18--|
|-16--16--16--16--|-16--16--16--16--|
|-----------------|-----------------|
|-----------------|-----------------|


                            D.S. al Coda
                                     2/4
   Q   Q   Q   Q     Q   Q   Q   Q    e Q.
|-----------------|-----------------|---------|
|-----------------|-----------------|---------|
|-----------------|-----------------|---------|
|-----------------|-----------------|---------|
|--4---4---4---4--|--4---4---4---4--|-4-------|
|--4---4---4---4--|--4---4---4---4--|-4-------|
|
|  Q   Q   Q   Q     Q   Q   Q   Q    H
|-----------------|-----------------|---------|
|-----------------|-----------------|---------|
|-18--18--18--18--|-18--18--18--18--|---------|
|-19--19--19--19--|-19--19--19--19--|---------|
|-21--21--21--21--|-21--21--21--21--|---------|
|-----------------|-----------------|---------|


 Interlude
  &
  F#5
 4/4
              >
  W          +W           +H     H      W
|----------|------------|-------------|------|
|----------|------------|-------------|------|
|----------|------------|-------------|------|
|----------|------------|-------------|------|
|-4--------|-(4)--------|-(4)---------|------|
|-4--------|-(4)--------|-(4)---------|------|


            N.C.
  H..        S  S    Q.    H     E    Q.    H     S  S
|--------------14-|----------------|----------------14-|
|-----------------|----------------|-14----------------|
|-----------13----|-13----14-------|-------13----13----|
|-----------------|-------------14-|-------------------|
|-----------------|----------------|-------------------|
|-----------------|----------------|-------------------|


   Q.    Q.    Q     +H..        S  S
|-----------------|----------------14---|
|-----------------|---------------------|
|-13----14--------|-------------13------|
|-------------14--|-(14)----------------|
|-----------------|---------------------|
|-----------------|---------------------|


   Q.                 H                       E
|--------------------------------------------------|
|--------------------------------------------------|
|-13-----------------14----------------------------|
|--------------------------------------------14----|
|--------------------------------------------------|
|--------------------------------------------------|
|
| Gtr II
|  S   S  S  S  S  S  S  S  S  S  S  S  S  S  S  S
|--------------------------------------------------|
|--------------------------------------------------|
|-11--13-14----11-13-14----11-13-14----11-13-14----|
|-----------12----------12----------12----------12-|
|--------------------------------------------------|
|--------------------------------------------------|


   Q.                 H                       S  S
|-----------------------------------------------14--|
|-14------------------------------------------------|
|--------------------13----------------------13-----|
|---------------------------------------------------|
|---------------------------------------------------|
|---------------------------------------------------|
|
|  S   S  S  S  S  S  S  S  S  S  S  S  S  S  S  S
|---------------------------------------------------|
|---------------------------------------------------|
|-11--13-14----11-13-14----11-13-14----11-13-14-----|
|-----------11----------11----------11----------11--|
|---------------------------------------------------|
|---------------------------------------------------|


   Q.                 Q.                 Q
|---------------------------------------------------|
|---------------------------------------------------|
|-13-----------------14-----------------------------|
|---------------------------------------14----------|
|---------------------------------------------------|
|---------------------------------------------------|
|
|  S   S  S  S  S  S  S   S  S  S  S  S  S  S  S  S
|---------------------------------------------------|
|---------------------------------------------------|
|-11--13-14----11-13-14-----11-13-14----11-13-14----|
|-----------12-----------12----------12----------12-|
|---------------------------------------------------|
|---------------------------------------------------|


   +W
|----------------------------------------------------|
|----------------------------------------------------|
|----------------------------------------------------|
|-(14)-----------------------------------------------|
|----------------------------------------------------|
|----------------------------------------------------|
|
|   S   S  S  S  S  S  S  S  S  S  S  S  S  S  S  S
|----------------------------------------------------|
|----------------------------------------------------|
|--11--13-14----11-13-14----11-13-14----11-13-14-----|
|------------11----------11----------11----------11--|
|----------------------------------------------------|
|----------------------------------------------------|


 Guitar Solo
  N.C.
   PM------|               PM-------------------|
   S  S  S  S  S  S  S  S  S   S  S  S  S  S  S  S
|--------------------------------------------------|
|--------------------9--9-(9)----------------------|
|--------------6--x--------------------------------|
|--------7--7---------------------7--7--------7--7-|
|--9--9--------------------9---9--------9--9-------|
|--------------------------------------------------|
|
|  S  S  S  S  S  S  S  S  S   S  S  S  S  S  S  S
|--------------------------------------------------|
|--------------------------------------------------|
|-11-13-14----11-13-14----11--13-14----11-13-14----|
|----------12----------12-----------12----------12-|
|--------------------------------------------------|
|--------------------------------------------------|


   S  S  S  S  S  S  S  S  S  S  S  S  S  S  S  S
|-------------------------------10-10--9-----------|
|--------------------9--9--x--x-----------9--------|
|--------------6--x--------x--x--------------------|
|--------7--7--------------------------------7--7--|
|--9--9--------------------------------------------|
|--------------------------------------------------|
|
|  S  S  S  S  S  S  S  S  S  S  S  S  S  S  S  S
|--------------------------------------------------|
|--------------------------------------------------|
|-11-13-14----11-13-14----11-13-14----11-13-14-----|
|----------11----------11----------11----------11--|
|--------------------------------------------------|
|--------------------------------------------------|


   PM--------------|                 PM--------------|
   S..    S.       S.    E.          S..       S.     S.    S    T  S  S
|----------------------------------------------------------------9h10p=9-|
|------------------------9----------------------------------9------------|
|------------------6----------------------------------6------------------|
|---------7------------------------------------7-------------------------|
|--9---------------------------------9-----------------------------------|
|------------------------------------------------------------------------|
|
|  S    S     S  S     S     S  S  S      S  S     S  S   S    S    S  S
|------------------------------------------------------------------------|
|------------------------------------------------------------------------|
|-11---13----14-------11----13-14--------11-13----14-----11---13---14----|
|---------------12----------------12-----------------12---------------12-|
|------------------------------------------------------------------------|
|------------------------------------------------------------------------|


   E.       a  E.        E     H
|--9--------9-10--------12------------------------------|
|------------------------------9------------------------|
|-------------------------------------------------------|
|-------------------------------------------------------|
|-------------------------------------------------------|
|-------------------------------------------------------|
|
|  S   S  S    S   S  S  S  S  S  S  S  S  S  S  S  S
|-------------------------------------------------------|
|-------------------------------------------------------|
|-11--13-14-------11-13-14----11-13-14----11-13-14------|
|-------------11-----------11----------11----------11---|
|-------------------------------------------------------|
|-------------------------------------------------------|


   S.     +T   T  S.     E     +T   X  T     T.  +H
|-17-----(17)-17-16-----14----(14)----------------------------------------|
|----------------------------------17p15p===14--(14)----------------------|
|-------------------------------------------------------------------------|
|-------------------------------------------------------------------------|
|-------------------------------------------------------------------------|
|-------------------------------------------------------------------------|
|
|  S   S       S      S  S  S   S         S       S   S  S  S  S  S  S  S
|-------------------------------------------------------------------------|
|-------------------------------------------------------------------------|
|-11--13------14--------11-13--14----------------11--13-14----11-13-14----|
|--------------------12------------------12----------------12----------12-|
|-------------------------------------------------------------------------|
|-------------------------------------------------------------------------|


   S.     +T   T  S.     E     a  E     a  Q.                  a   E
|-17-----(17)-16-16-----14----14s19----19-19-----------------(19)s17----|
|-----------------------------------------------------------------------|
|-----------------------------------------------------------------------|
|-----------------------------------------------------------------------|
|-----------------------------------------------------------------------|
|-----------------------------------------------------------------------|
|
|  S   S       S      S  S  S     S  S     S   S  S  S  S  S       S  S
|-----------------------------------------------------------------------|
|-----------------------------------------------------------------------|
|-11--13------14--------11-13----14-------11--13-14----11-13------14----|
|--------------------11-------------11--------------11---------------11-|
|-----------------------------------------------------------------------|
|-----------------------------------------------------------------------|


   E      e.        E     +S   E     E      Q
|-17----(16)-------14----(14)s=9-----9----/10----------|
|------------------------------------------------------|
|------------------------------------------------------|
|------------------------------------------------------|
|------------------------------------------------------|
|------------------------------------------------------|
|
|  S  S   S   S  S  S  S   S   S  S  S  S   S  S  S  S
|------------------------------------------------------|
|------------------------------------------------------|
|-11-13--14-----11-13-14------11-13-14-----11-13-14----|
|------------12-----------12-----------12-----------12-|
|------------------------------------------------------|
|------------------------------------------------------|


   Q.                 E     T  T  Q..
|-------------------------------------------------------|
|-12------------------9-----9h10p=9---------------------|
|-------------------------------------------------------|
|-------------------------------------------------------|
|-------------------------------------------------------|
|-------------------------------------------------------|
|
|  S   S  S  S  S  S  S  S  S     S    S  S  S  S  S  S
|-------------------------------------------------------|
|-------------------------------------------------------|
|-11--13-14----11-13-14----11----13---14----11-13-14----|
|-----------11----------11---------------11----------11-|
|-------------------------------------------------------|
|-------------------------------------------------------|


   PM---|    PM--|                 PM---|    PM--|
   |-3--|    |-3-|                 |-3--|    |-3-|
   E  E E Q  E E E   S  T  T E     E  E E Q  E E E   S  T  T E
|-----------------------9h10p9-|------------------------9h10p9-|
|---------9----------9---------|----------9----------9---------|
|-------6--------6-------------|--------6--------6-------------|
|-----7--------7---------------|------7--------7---------------|
|--9---------9-----------------|---9---------9-----------------|
|------------------------------|-------------------------------|
|
|  H.                Q             H.                Q
|------------------------------|-------------------------------|
|------------------------------|-------------------------------|
|-14----------------16---------|--18----------------16---------|
|-16---------------(16)--------|-(16)--------------(16)--------|
|------------------------------|-------------------------------|
|------------------------------|-------------------------------|


   PM---|    PM--|                 PM---|
   |-3--|    |-3-|                 |-3--|
   E  E E Q  E E E   S  T  T E     E  E E Q  H
|-----------------------9h10p9-|------------------|
|---------9----------9---------|----------9-------|
|-------6--------6-------------|--------6---------|
|-----7--------7---------------|------7-----------|
|--9---------9-----------------|---9--------------|
|------------------------------|------------------|
|
|  H.                Q             H         H
|------------------------------|------------------|
|------------------------------|------------------|
|-14----------------16---------|--18--------------|
|-16---------------(16)--------|-(16)-------------|
|------------------------------|------------------|
|------------------------------|------------------|


   Breakdown
    F#5
    PM----------------------------------------------------------|
      |-3-|   |-3-|   |-3-| |-3-|     |-3-|   |-3-|   |-3-| |-3-|
    e S S S e S S S e S S S E E E   e S S S e S S S e S S S E E E
||--------------------------------|--------------------------------||
||o-------------------------------|-------------------------------o||
||--------------------------------|--------------------------------||
||--------------------------------|--------------------------------||
||o-4-4-4-4-4-4-4-4-4-4-4-4-4-4-4-|-4-4-4-4-4-4-4-4-4-4-4-4-4-4-4-o||
||--4-4-4-4-4-4-4-4-4-4-4-4-4-4-4-|-4-4-4-4-4-4-4-4-4-4-4-4-4-4-4--||


   PM-----------------------------------------------------------------------|
       |-3-|   |-3-|   |-3-| |--3---|        |-3-|   |-3-|   |-3-| |---3----|
   e   S S S e S S S e S S S E E    E    e   S S S e S S S e S S S E E      E
|-------------------------------------|----------------------------------------|
|-------------------------------------|----------------------------------------|
|-------------------------------------|----------------------------------------|
|-------------------------------------|----------------------------------------|
|--4---4-4-4-4-4-4-4-4-4-4-4-4-4----4-|--4---4-4-4-4-4-4-4-4-4-4-4-4-4------4--|
|--4---4-4-4-4-4-4-4-4-4-4-4-4-4----4-|--4---4-4-4-4-4-4-4-4-4-4-4-4-4------4--|
|
| Gtr II
|  H..                            E      H..                             E
|-------------------------------------|---------------------------------13-----|
|-------------------------------------|-14-----------------------------(14)----|
|-14-----------------------------16---|-17-----------------------------(17)----|
|-------------------------------------|----------------------------------------|
|-------------------------------------|----------------------------------------|
|-------------------------------------|----------------------------------------|


   PM--------------------------------------------------------------|
     |-3-|   |-3-|    |-3-| |-3-|        |-3-|   |-3-|   |-3-| |-3-|
   e S S S e S S S  e S S S E E E     e  S S S e S S S e S S S E E E
|---------------------------------|----------------------------------|
|---------------------------------|----------------------------------|
|---------------------------------|----------------------------------|
|---------------------------------|----------------------------------|
|--4-4-4-4-4-4-4-4--4-4-4-4-4-4-4-|---4--4-4-4-4-4-4-4-4-4-4-4-4-4-4-|
|--4-4-4-4-4-4-4-4--4-4-4-4-4-4-4-|---4--4-4-4-4-4-4-4-4-4-4-4-4-4-4-|
|
|  H                H                 W
|-14---------------15-------------|--20------------------------------|
|-15---------------19-------------|--19------------------------------|
|------------------19-------------|-(19)-----------------------------|
|---------------------------------|----------------------------------|
|---------------------------------|----------------------------------|
|---------------------------------|----------------------------------|


 Chaos
  Wx4
|------------|
|------------|
|------------|
|------------|
|------------|
|------------|


    A5/E            G#5/Eb          A5/E            G#5/Eb
    T T T T T T T T T T T T T T T T T T T T T T T T T T T T T T T T    3x
||---------------------------------------------------------------------||
||o-------------------------------------------------------------------o||
||---------------------------------------------------------------------||
||--7-7-7-7-7-7-7-7-6-6-6-6-6-6-6-6-7-7-7-7-7-7-7-7-6-6-6-6-6-6-6-6----||
||o-7-7-7-7-7-7-7-7-6-6-6-6-6-6-6-6-7-7-7-7-7-7-7-7-6-6-6-6-6-6-6-6---o||
||---------------------------------------------------------------------||


  W
|----------|
|----------|
|----------|
|----------|
|----------|
|----------|


    T T T T T T T T T T T T T T T T T T T T T T T T T T T T T T T T    4x
||---------------------------------------------------------------------||
||o-------------------------------------------------------------------o||
||---------------------------------------------------------------------||
||--7-7-7-7-7-7-7-7-6-6-6-6-6-6-6-6-7-7-7-7-7-7-7-7-6-6-6-6-6-6-6-6----||
||o-7-7-7-7-7-7-7-7-6-6-6-6-6-6-6-6-7-7-7-7-7-7-7-7-6-6-6-6-6-6-6-6---o||
||---------------------------------------------------------------------||


 Interlude
  Q=90
  N.C.
  |-3-|    |-3-|      |-3-|    |-3-|
  E E E Q  E E E Q    E E E Q  E E E Q
|-------------------|-------5--------5--|
|-------------------|-------------------|
|-----6-7------6-7--|-------------------|
|---7--------7------|-------------------|
|-5--------5--------|---0-4------0-4----|
|-------------------|-4--------4--------|


  |-3-|    |-3--|        |-3-|       |-3-|       |-3-| |-3-|
  E E E E +S  S S  S. S. S S S +E.   E E E S. S. E E E S S S +E.
|----------------------------5-(5)-|-------4-----5-4-------------|
|----------------------------------|-----------------5-3-5-2-(2)-|
|-----6-7-(7)-7-7-/9--7--6-7-------|----------4------------------|
|---7------------------------------|-----------------------------|
|-5--------------------------------|---0-4-----------------------|
|----------------------------------|-4---------------------------|


  |-3-|    |-3-|      |-3-|    |-3-|
  E E E Q  E E E Q    E E E Q  E E E Q
|-------------------|-------5-----------|
|-------------------|-------------------|
|-----6-7------6-7--|-------------------|
|---7--------7------|-------------------|
|-5--------5--------|---0-4------0-4----|
|-------------------|-4--------4-----6--|


  |-3-|    |-3--|        |-3-|       |-3-|       |-3-| |-3-|
  E E E E +S  S S  S. S. S S S +E.   E E E S. S. E E E S S S +E.
|----------------------------5-(5)-|-------4-----5-4-------------|
|----------------------------------|-----------------5-3-5-2-(2)-|
|-----6-7-(7)-7-7-/9--7--6-7-------|----------4------------------|
|---7------------------------------|-----------------------------|
|-5--------------------------------|---0-4-----------------------|
|----------------------------------|-4---------------------------|


 Outro
  D5                            F#5
   PM--------------------------------------------------|
   |-3-|     |-3-|  |-3--|       |-3-|     |-3-|  |-3--|
   E E E e E S S S +S  E e. E    E E E e E S S S +S  E e. E
|-----------------------------|-----------------------------|
|-----------------------------|-----------------------------|
|-----------------------------|--6-6-6-6---6-6-6-(6)-6-6----|
|--7-7-7-7---7-7-7-(7)-7-7----|--4-4-4-4---4-4-4-(4)-4-4----|
|--5-5-5-5---5-5-5-(5)-5-5----|-----------------------------|
|-----------------------------|-----------------------------|
|
| Gtr II
|  W                             W
|-----------------------------|-----------------------------|
|-----------------------------|-----------------------------|
|-----------------------------|-----------------------------|
|-----------------------------|-16--------------------------|
|-17--------------------------|-----------------------------|
|-----------------------------|-----------------------------|


  D5                            F#5
   PM---------------------------------------------------------------|
   |-3-|     |-3-|  |-3--|       |-3-|  |-3--|      |-3--|  |-3--|
   E E E e E S S S +S  E e. E    S S S +S  E e. E   S  S S +S  E e. E
|-----------------------------|---------------------------------------|
|-----------------------------|---------------------------------------|
|-----------------------------|---------------------------------------|
|--7-7-7-7---7-7-7-(7)-7-7----|--4-4-4-(4)-4-4------4--4-4-(4)-4-4----|
|--5-5-5-5---5-5-5-(5)-5-5----|--4-4-4-(4)-4-4------4--4-4-(4)-4-4----|
|-----------------------------|--4-4-4-(4)-4-4------4--4-4-(4)-4-4----|
|
|  W                             H                  H
|-----------------------------|---------------------------------------|
|-----------------------------|---------------------------------------|
|-----------------------------|--------------------14-----------------|
|-----------------------------|-16----------------(16)----------------|
|-17--------------------------|---------------------------------------|
|-----------------------------|---------------------------------------|


  D5                               F#5
   PM-------------------------------------------------------------|
   |-3-|       |-3--|  |-3--|        |-3--|       |-3--|  |-3--|
   E E E e E   S  S S +S  E e. E     E  E E e E   S  S S +S  E e. E
|--------------------------------|----------------------------------|
|--------------------------------|----------------------------------|
|--------------------------------|---6--6-6-6-----6--6-6-(6)-6-6----|
|--7-7-7-7-----7--7-7-(7)-7-7----|---4--4-4-4-----4--4-4-(4)-4-4----|
|--5-5-5-5-----5--5-5-(5)-5-5----|----------------------------------|
|--------------------------------|----------------------------------|
|
|  H           H                    +H            H
|--------------------------------|---------------16-----------------|
|-------------14-----------------|-(14)---------(14)----------------|
|-14---------(14)----------------|----------------------------------|
|--------------------------------|----------------------------------|
|--------------------------------|----------------------------------|
|--------------------------------|----------------------------------|


                                                   H.=H
  D5                              F#5
    PM-------------------------------------|   PM----------|
    |-3--|     |-3-|  |-3--|        |-3--|     |-3-|  |-3--|
    E  E E e E S S S +S  E e. E     E  E E e E S S S +S  E e. E
|-------------------------------|-------------------------------*|
|-------------------------------|-------------------------------*|
|-------------------------------|---6--6-6-6---6-6-6-(6)-6-6----*|
|---7--7-7-7---7-7-7-(7)-7-7----|---4--4-4-4---4-4-4-(4)-4-4----*|
|---5--5-5-5---5-5-5-(5)-5-5----|---4--4-4-4---4-4-4-(4)-4-4----*|
|-------------------------------|---4--4-4-4---4-4-4-(4)-4-4----*|
|
|   W                              +H          H
|-(16)--------------------------|-------------------------------*|
|--14---------------------------|-(14)--------------------------*|
|-------------------------------|-------------------------------*|
|-------------------------------|-------------------------------*|
|-------------------------------|-------------------------------*|
|-------------------------------|-------------------------------*|



Duration Legend
---------------
W - whole; H - half; Q - quarter; E - 8th; S - 16th; T - 32nd; X - 64th; a - acciaccatura
+ - note tied to previous; . - note dotted; .. - note double dotted
Uncapitalized letters represent notes that are staccato (1/2 duration)
Irregular groupings are notated above the duration line
Duration letters will always appear directly above the note/fret number it represents the
duration for.  Duration letters with no fret number below them represent rests.  Multi-
bar rests are notated in the form Wxn, where n is the number of bars to rest for.  Low
melody durations appear below the staff

Tablature Legend
----------------
 h   - hammer-on
 p   - pull-off
 b   - bend
 pb  - pre-bend
 r   - bend release (if no number after the r, then release immediately)
 /\  - slide into or out of (from/to "nowhere")
 s   - legato slide
 S   - shift slide
 - natural harmonic
[n]  - artificial harmonic
n(n) - tapped harmonic
 ~   - vibrato
 tr  - trill
 T   - tap
 TP  - trem. picking
 PM  - palm muting
\n/  - tremolo bar dip; n = amount to dip
 \n  - tremolo bar down
 n/  - tremolo bar up
/n\  - tremolo bar inverted dip
 =   - hold bend; also acts as connecting device for hammers/pulls
 <> - volume swell (louder/softer)
 x   - on rhythm slash represents muted slash
 o   - on rhythm slash represents single note slash

Misc Legend
-----------
 |  - bar
||  - double bar
||o - repeat start
o|| - repeat end
*|  - double bar (ending)
 :  - bar (freetime)
 $  - Segno
 &  - Coda
Tempo markers -  = BPM(8/16=s8/s16), where s8 = swing 8ths, s16 = swing 16ths

Добавлено: 20.07.2012
Другие материалы по этой песне:

Страница создана 29.03.2012
http://primanota.ru/horse-the-band/in-the-wake-of-the-bunt-chords.htm
Привет, Гость.
Предлагаем пройти революционный курс по гитаре.
Подарок от PrimaNota.Ru, забирай!