PrimaNota.ru - самый крупный в мире бесплатный архив песенных текстов, аккордов, табулатур и нот


Horse The Band - Cutsman - текст песни, таба, бас-таба, видео

Регистрация Запомнить меня
Войти через:  Facebook Google Twitter Vk Yandex Mail.ru

Horse The Band - Cutsman - текст песни, таба, бас-таба, видео

Печатать
Просмотров: 178
Уроки эстрадного вокала в Санкт-Петербурге
I copied this from the powertab




Transcribed by Stephen Jones
        

Words and Music by HORSE the band

Gtr I (D A D G B E) - 'Distorted Guitar'
Gtr II (D A D G B E) - 'Synthesiser 1'
Gtr III (D A D G B E) - 'Pick Scrape'
Gtr IV (D A D G B E) - 'Synthesiser 2'
Gtr V (D A D G B E) - 'Synthesiser 3'

 Clip From "The Wizard"
  Q=150
  N.C.
 4/4
  Gtr I
  Wx12
|---------||
|---------||
|---------||
|---------||
|---------||
|---------||


 Intro
  F#5
  E   E   H.                         H.                       E   E
|----------------------------------|-----------------------------------|
|----------------------------------|-----------------------------------|
|----------------------------------|-----------------------------------|
|-4--------------------------------|------------------------------4----|
|-4--------------------------------|------------------------------4----|
|-4--------------------------------|------------------------------4----|
|
| Gtr II
| S S S S S  S S S S S S S S S S S   S  S S S S S S S S S S S S S S S
|----------------------------------|-----------------------------------|
|-7---5--------5---7---5-------5---|-7----5-------5---7---5-------5----|
|---------6----------------6-------|----------6---------------6--------|
|---4---4----4---4---4---4---4---4-|----4---4---4---4---4---4---4---4--|
|----------------------------------|-----------------------------------|
|----------------------------------|-----------------------------------|


  D5
  E   E   H.                         H.                       E   E
|----------------------------------|-----------------------------------|
|----------------------------------|-----------------------------------|
|----------------------------------|-----------------------------------|
|-0--------------------------------|------------------------------0----|
|-0--------------------------------|------------------------------0----|
|-0--------------------------------|------------------------------0----|
|
| S S S S S  S S S S S S S S S S S   S  S S S S S S S S S S S S S S S
|----------------------------------|-----------------------------------|
|-7---5--------5---7---5-------5---|-7----5-------5---7---5-------5----|
|---------6----------------6-------|----------6---------------6--------|
|----------------------------------|-----------------------------------|
|---5---5----5---5---5---5---5---5-|----5---5---5---5---5---5---5---5--|
|----------------------------------|-----------------------------------|


  E5
  W                                 +W
|---------------------------------|------------------------------------|
|---------------------------------|------------------------------------|
|---------------------------------|------------------------------------|
|-2-------------------------------|-(2)--------------------------------|
|-2-------------------------------|-(2)--------------------------------|
|-2-------------------------------|-(2)--------------------------------|
|
| S S S S S S S S S S S S S S S S    S  S S S S S S S S S S S S S S S
|-------------5---------------5---|---------------5---------------5----|
|-7---5---7-------7---5---7-------|--7----5---7-------7---5---7--------|
|---------------------------------|------------------------------------|
|---------------------------------|------------------------------------|
|---7---7---7---7---7---7---7---7-|-----7---7---7---7---7---7---7---7--|
|---------------------------------|------------------------------------|


  B5                                 N.C.
                                     Gtr III
                                     TP
  E   E   H.                         W
|----------------------------------|-----------------------------------||
|----------------------------------|-----------------------------------||
|-4--------------------------------|-----------------------------------||
|-4--------------------------------|-----------------------------------||
|-2--------------------------------|-x\--------------------------------||
|----------------------------------|-----------------------------------||
|
| S S S S S  S S S S S S S S S S S   S  S S S S S S S S S S S S S S S
|----------------------------------|-----------------------------------||
|-5---5---5----5---5---5---5---5---|-7----5---5---5---5---5---5---5----||
|---4---4----4---4---4---4---4---4-|----6---6---6---6---6---6---6---6--||
|----------------------------------|-----------------------------------||
|----------------------------------|-----------------------------------||
|----------------------------------|-----------------------------------||


 Pre-Verse
  $
  F#5
  Gtr I
  PM--------------------------------------------------------------|
  S S S S S S S S S S S S S S S S   S S S S S S S S S S S S S S S S
|---------------------------------|----------------------------------|
|---------------------------------|----------------------------------|
|---------------------------------|----------------------------------|
|---------------------------------|----------------------------------|
|-4-4-4-4-4-4-4-4-4-4-4-4-4-4-4-4-|-4-4-4-4-4-4-4-4-4-4-4-4-4-4-4-4--|
|-4-4-4-4-4-4-4-4-4-4-4-4-4-4-4-4-|-4-4-4-4-4-4-4-4-4-4-4-4-4-4-4-4--|
|
| S S S S S S S S S S S S S S S S   S S S S S S S S S S S S S S S S
|---------------------------------|----------------------------------|
|-7---5-------5---7---5-------5---|-7---5-------5---7---5-------5----|
|---------6---------------6-------|---------6---------------6--------|
|---4---4---4---4---4---4---4---4-|---4---4---4---4---4---4---4---4--|
|---------------------------------|----------------------------------|
|---------------------------------|----------------------------------|


  D5
  PM--------------------------------------------------------------|
  S S S S S S S S S S S S S S S S   S S S S S S S S S S S S S S S S
|---------------------------------|----------------------------------|
|---------------------------------|----------------------------------|
|---------------------------------|----------------------------------|
|---------------------------------|----------------------------------|
|-0-0-0-0-0-0-0-0-0-0-0-0-0-0-0-0-|-0-0-0-0-0-0-0-0-0-0-0-0-0-0-0-0--|
|-0-0-0-0-0-0-0-0-0-0-0-0-0-0-0-0-|-0-0-0-0-0-0-0-0-0-0-0-0-0-0-0-0--|
|
| S S S S S S S S S S S S S S S S   S S S S S S S S S S S S S S S S
|---------------------------------|----------------------------------|
|-7---5-------5---7---5-------5---|-7---5-------5---7---5-------5----|
|---------6---------------6-------|---------6---------------6--------|
|---------------------------------|----------------------------------|
|---5---5---5---5---5---5---5---5-|---5---5---5---5---5---5---5---5--|
|---------------------------------|----------------------------------|


  E5
  PM--------------------------------------------------------------|
  S S S S S S S S S S S S S S S S   S S S S S S S S S S S S S S S S
|---------------------------------|----------------------------------|
|---------------------------------|----------------------------------|
|---------------------------------|----------------------------------|
|---------------------------------|----------------------------------|
|-2-2-2-2-2-2-2-2-2-2-2-2-2-2-2-2-|-2-2-2-2-2-2-2-2-2-2-2-2-2-2-2-2--|
|-2-2-2-2-2-2-2-2-2-2-2-2-2-2-2-2-|-2-2-2-2-2-2-2-2-2-2-2-2-2-2-2-2--|
|
| S S S S S S S S S S S S S S S S   S S S S S S S S S S S S S S S S
|-------------5---------------5---|-------------5---------------5----|
|-7---5---7-------7---5---7-------|-7---5---7-------7---5---7--------|
|---------------------------------|----------------------------------|
|---------------------------------|----------------------------------|
|---7---7---7---7---7---7---7---7-|---7---7---7---7---7---7---7---7--|
|---------------------------------|----------------------------------|


                                                           To Coda
  B5                                C#5
  PM--------------------------------------------------------------|
  S S S S S S S S S S S S S S S S   S S S S S S S S S S S S S S S S
|---------------------------------|----------------------------------||
|---------------------------------|----------------------------------||
|---------------------------------|----------------------------------||
|-4-4-4-4-4-4-4-4-4-4-4-4-4-4-4-4-|-6-6-6-6-6-6-6-6-6-6-6-6-6-6-6-6--||
|-2-2-2-2-2-2-2-2-2-2-2-2-2-2-2-2-|-4-4-4-4-4-4-4-4-4-4-4-4-4-4-4-4--||
|---------------------------------|----------------------------------||
|
| S S S S S S S S S S S S S S S S   S S S S S S S S S S S S S S S S
|---------------------------------|----------------------------------||
|-5---5---5---5---5---5---5---5---|-7---5---5---5---5---5---5---5----||
|---4---4---4---4---4---4---4---4-|---6---6---6---6---6---6---6---6--||
|---------------------------------|----------------------------------||
|---------------------------------|----------------------------------||
|---------------------------------|----------------------------------||


 Verse
  N.C.
  PM-------------------------------------
  S S  S S  S S  S S S S  S S  S S  S S
|---------------------------------------|
|---------------------------------------|
|---------------------------------------|
|---------------------------------------|
|---------------------------------------|
|-4-4--4-4--4-4--4-4-4-4--4-4--4-4--4-4-|
|
| E    E    E    E   E    E    E    E
|----------14-----------------14--------|
|---------------------------------------|
|-----11--------11-------11--------11---|
|---------------------------------------|
|-9------------------9------------------|
|---------------------------------------|


 -------------------------------------|
  S S  S S  S S  S S S S  S S  S S  S S
|----------------------------------------|
|----------------------------------------|
|----------------------------------------|
|----------------------------------------|
|----------------------------------------|
|-4-4--4-4--4-4--4-4-4-4--4-4--4-4--4-4--|
|
| E    E    E    E   E    E    E    E
|----------14-----------------14---------|
|----------------------------------------|
|-----11--------11-------11--------11----|
|----------------------------------------|
|-9------------------9-------------------|
|----------------------------------------|


  N.C.
  PM-------------------------------------
  S S  S S  S S  S S S S  S S  S S  S S
|---------------------------------------|
|---------------------------------------|
|---------------------------------------|
|---------------------------------------|
|---------------------------------------|
|-0-0--0-0--0-0--0-0-0-0--0-0--0-0--0-0-|
|
| E    E    E    E   E    E    E    E
|----------14-----------------14--------|
|---------------------------------------|
|-----11--------11-------11--------11---|
|---------------------------------------|
|-9------------------9------------------|
|---------------------------------------|


 -------------------------------------|
  S S  S S  S S  S S S S  S S  S S  S S
|----------------------------------------|
|----------------------------------------|
|----------------------------------------|
|----------------------------------------|
|----------------------------------------|
|-0-0--0-0--0-0--0-0-0-0--0-0--0-0--0-0--|
|
| E    E    E    E   E    E    E    E
|----------14-----------------14---------|
|----------------------------------------|
|-----11--------11-------11--------11----|
|----------------------------------------|
|-9------------------9-------------------|
|----------------------------------------|


  N.C.
  PM-------------------------------------
  S S  S S  S S  S S S S  S S  S S  S S
|---------------------------------------|
|---------------------------------------|
|---------------------------------------|
|---------------------------------------|
|---------------------------------------|
|-2-2--2-2--2-2--2-2-2-2--2-2--2-2--2-2-|
|
| E    E    E    E   E    E    E    E
|----------14-----------------14--------|
|---------------------------------------|
|-----11--------11-------11--------11---|
|---------------------------------------|
|-9------------------9------------------|
|---------------------------------------|


 -------------------------------------|
  S S  S S  S S  S S S S  S S  S S  S S
|----------------------------------------|
|----------------------------------------|
|----------------------------------------|
|----------------------------------------|
|----------------------------------------|
|-2-2--2-2--2-2--2-2-2-2--2-2--2-2--2-2--|
|
| E    E    E    E   E    E    E    E
|----------14-----------------14---------|
|----------------------------------------|
|-----11--------11-------11--------11----|
|----------------------------------------|
|-9------------------9-------------------|
|----------------------------------------|


  N.C.
  PM-------------------------------------
  S S  S S  S S  S S S S  S S  S S  S S
|---------------------------------------|
|---------------------------------------|
|---------------------------------------|
|---------------------------------------|
|-2-2--2-2--2-2--2-2-2-2--2-2--2-2--2-2-|
|---------------------------------------|
|
| E    E    E    E   E    E    E    E
|----------14-----------------14--------|
|---------------------------------------|
|-----11--------11-------11--------11---|
|---------------------------------------|
|-9------------------9------------------|
|---------------------------------------|


 -------------------------------------|
  S S  S S  S S  S S S S  S S  S S  S S
|----------------------------------------||
|----------------------------------------||
|----------------------------------------||
|----------------------------------------||
|-4-4--4-4--4-4--4-4-4-4--4-4--4-4--4-4--||
|----------------------------------------||
|
| E    E    E    E   E    E    E    E
|----------14------------14---14---14----||
|----------------------------------------||
|-----11--------11-------11---11---11----||
|----------------------------------------||
|-9------------------9-------------------||
|----------------------------------------||


 Chorus
  Q=128
  F#5                             D5
  Q  Q  E E E E   Q  Q  E E E E    Q   Q  E  E E  E
|---------------|---------------|-------------------|
|---------------|---------------|-------------------|
|---------------|---------------|-------------------|
|-4--4----4---4-|-4--4----4---4-|--0---0-----0----0-|
|-4--4----4---4-|-4--4----4---4-|--0---0-----0----0-|
|-4--4----4---4-|-4--4----4---4-|--0---0-----0----0-|
|
| Gtr IV
| Q  Q  E E E E   Q  Q  E E E E    Q   Q  E  E E  E
|---------------|---------------|-------------------|
|-7--7----7---7-|-7--7----7---7-|-10--10----10---10-|
|---------------|---------------|-------------------|
|-4--4----4---4-|-4--4----4---4-|--7---7-----7----7-|
|---------------|---------------|-------------------|
|---------------|---------------|-------------------|


  D5                  E5
   Q   Q  E  E E  E   Q  Q  E E E E   Q  Q  E E E E
|-------------------|---------------|---------------|
|-------------------|---------------|---------------|
|-------------------|---------------|---------------|
|--0---0-----0----0-|-2--2----2---2-|-2--2----2---2-|
|--0---0-----0----0-|-2--2----2---2-|-2--2----2---2-|
|--0---0-----0----0-|-2--2----2---2-|-2--2----2---2-|
|
|  Q   Q  E  E E  E   Q  Q  E E E E   Q  Q  E E E E
|-------------------|-7--7----7---7-|-7--7----7---7-|
|-10--10----10---10-|---------------|---------------|
|-------------------|-4--4----4---4-|-4--4----4---4-|
|--7---7-----7----7-|---------------|---------------|
|-------------------|---------------|---------------|
|-------------------|---------------|---------------|


                  D.S. al Coda
  D5              A/C#
  Q  Q  E E E E   Q  Q  E E E E
|---------------|---------------||
|---------------|---------------||
|-7--7----7---7-|-6--6----6---6-||
|-7--7----7---7-|-7--7----7---7-||
|-5--5----5---5-|-4--4----4---4-||
|---------------|---------------||
|
| Q  Q  E E E E   Q  Q  E E E E
|---------------|---------------||
|---------------|---------------||
|-7--7----7---7-|-9--9----9---9-||
|---------------|---------------||
|-5--5----5---5-|-7--7----7---7-||
|---------------|---------------||


 Verse
  Q=150
  &
  C#5             N.C.                B5              N.C.
  PM--------|      ~~~                PM--------|      ~~~
  S S S S S S E    H                  S S S S S S E    H
|-----------------------------------|------------------------------------|
|-----------------------------------|------------------------------------|
|-----------------------------------|------------------------------------|
|-6-6-6-6-6-6-6---[6]---------------|-4-4-4-4-4-4-4---[4]----------------|
|-4-4-4-4-4-4-4---------------------|-2-2-2-2-2-2-2----------------------|
|-----------------------------------|------------------------------------|
|
| Gtr II
| S S S S S S S S  S  S S S S S S S   S S S S S S S S  S  S S S S S S S
|-----------------------------------|------------------------------------|
|-5---5---5---5----5----5---5---5---|-4---4---4---4----4----4---4---4----|
|---6---6---6---6-----6---6---6---6-|---4---4---4---4-----4---4---4---4--|
|-----------------------------------|------------------------------------|
|-----------------------------------|------------------------------------|
|-----------------------------------|------------------------------------|


  N.C.
  Gtr II
  S S S S S S S S S S S S S S S S   S S S S S S S S S S S S S S S S
|---------------------------------|----------------------------------|
|---------------------------------|----------------------------------|
|-4---4-------4---4---4---4---4---|-6---6---6---6---6---6---6---6----|
|---2-------2---2---2---2---2---2-|---4---4---4---4---4---4---4---4--|
|---------------------------------|----------------------------------|
|---------------------------------|----------------------------------|


  C#5             N.C.                B5              N.C.
  Gtr I
  PM--------|      ~~~                PM--------|      ~~~
  S S S S S S E    H                  S S S S S S E    H
|-----------------------------------|------------------------------------|
|-----------------------------------|------------------------------------|
|-----------------------------------|------------------------------------|
|-6-6-6-6-6-6-6---[6]---------------|-4-4-4-4-4-4-4---[4]----------------|
|-4-4-4-4-4-4-4---------------------|-2-2-2-2-2-2-2----------------------|
|-----------------------------------|------------------------------------|
|
| Gtr II
| S S S S S S S S  S  S S S S S S S   S S S S S S S S  S  S S S S S S S
|-----------------------------------|------------------------------------|
|-5---5---5---5----5----5---5---5---|-4---4---4---4----4----4---4---4----|
|---6---6---6---6-----6---6---6---6-|---4---4---4---4-----4---4---4---4--|
|-----------------------------------|------------------------------------|
|-----------------------------------|------------------------------------|
|-----------------------------------|------------------------------------|


  N.C.
  Gtr II
  S S S S S S S S S S S S S S S S   S S S S S S S S S S S S S S S S
|---------------------------------|----------------------------------|
|---------------------------------|----------------------------------|
|-4---4---4---4---4---4---4---4---|-6---6---6---6---6---6---6---6----|
|---2---2---2---2---2---2---2---2-|---4---4---4---4---4---4---4---4--|
|---------------------------------|----------------------------------|
|---------------------------------|----------------------------------|


    C#5             N.C.            B5              N.C.
    Gtr I
    PM----|         T       T       PM----|         T       T
    S S S S E   E   S S S S S S E   S S S S E   E   S S S S S S E
||--------------------------------|-------------------------------|
||o-----------------9p5p2h5-9p5p2-|-----------------7p4p0h4-7p4p0-|
||--------------------------------|-------------------------------|
||--6-6-6-6-6---------------------|-4-4-4-4-4---------------------|
||o-4-4-4-4-4---------------------|-2-2-2-2-2---------------------|
||--------------------------------|-------------------------------|
|
|   Gtr II
|   S S S S S S S S S S S S S S E   S S S S S S S S S S S S S S E
||--4-------4-------4-------4-----|-2-------2-------2-------2-----|
||o---5---5---5---5---5---5---5---|---4---4---4---4---4---4---4---|
||------6-------6-------6-------6-|-----4-------4-------4-------4-|
||--------------------------------|-------------------------------|
||o-------------------------------|-------------------------------|
||--------------------------------|-------------------------------|


  E5                                F#5
  PM--------------------------------------------------------------|
  S S S S S S S S S S S S S S S S   S S S S S S S S S S S S S S S S
|---------------------------------|-----------------------------------||
|---------------------------------|----------------------------------o||
|---------------------------------|-----------------------------------||
|---------------------------------|-----------------------------------||
|-2-2-2-2-2-2-2-2-2-2-2-2-2-2-2-2-|-4-4-4-4-4-4-4-4-4-4-4-4-4-4-4-4--o||
|-2-2-2-2-2-2-2-2-2-2-2-2-2-2-2-2-|-4-4-4-4-4-4-4-4-4-4-4-4-4-4-4-4---||
|
| S S S S S S S S S S S S S S S S   S S S S S S S S S S S S S S S S
|---------------------------------|-----------------------------------||
|---------------------------------|----------------------------------o||
|-1---1---1---1---1---1---1---1---|-6---6---6---6---6---6---6---6-----||
|---2---2---2---2---2---2---2---2-|---4---4---4---4---4---4---4---4---||
|---------------------------------|----------------------------------o||
|---------------------------------|-----------------------------------||


 Cut Breakdown
  Q=135
  N.C.                    (Dsus(Dm(Dsu(Dm) (Dsus(Dm)
  PM---------------------------------------|
  W          +W           +W               +W
|----------|------------|----------------|---------------------|
|----------|------------|----------------|---------------------|
|----------|------------|----------------|---------------------|
|----------|------------|----------------|---------------------|
|----------|------------|----------------|---------------------|
|-0--------|-(0)--------|-(0)------------|-(0)-----------------|
|
| Gtr V
| W           W            Q   Q   Q  Q     Q   E E +E  E +Q
|----------|------------|----------------|--------5-(5)-5-(5)--|
|----------|------------|-^5---6--^5--6--|-^5---6-6-(6)-6-(6)--|
|----------|------------|-^7------^7-----|-^7------------------|
|----------|------------|----------------|---------------------|
|----------|------------|----------------|---------------------|
|----------|------------|----------------|---------------------|


  (Dsus(Dm(Dsu(Dm) (Dsus(Dm)                (Dsus2)(Dm(Dsu(Dm)
   PM----------------------|
  +W               +H      +E   E   +Q       +W
|----------------|-------------<5>-(<5>)--|-(<5>)------------|
|----------------|------------------------|------------------|
|----------------|------------------------|------------------|
|----------------|------------------------|------------------|
|----------------|------------------------|------------------|
|-(0)------------|-(0)-----(0)------------|------------------|
|
|  Q   Q   Q  Q     Q   Q  +E   E   +Q        Q    Q   Q  Q
|----------------|------------------------|------------------|
|-^5---6--^5--6--|-^5---6--(6)------------|-^-5----6--^5--6--|
|-^7------^7-----|-^7----------^7---(7)---|-^-7-------^7-----|
|----------------|-------------^7---(7)---|------------------|
|----------------|------------------------|------------------|
|----------------|------------------------|------------------|


  (Dsus2)(Dm)
           >       <
   +Q     +Q       H
|-(<5>)--(<5>)--------------------|
|---------------------------------|
|---------------------------------|
|----------------[10]b11.5--------|
|---------------------------------|
|---------------------------------|
|
|   Q      E   E  +E       E +Q
|--------------5--(5)------5-(5)--|
|-^-5------6---6--(6)------6-(6)--|
|-^-7-----------------------------|
|---------------------------------|
|---------------------------------|
|---------------------------------|


  (Dsus2) (Dm(Dsu(Dm) (Dsus2) (Dm)
    +W                  +H         +E   E  Q
|-------------------|--------------------------|
|-------------------|--------------------------|
|-------------------|--------------------------|
|-([10])------------|-([10])-----([10])--------|
|-------------------|--------------------------|
|-------------------|--------------------------|
|
|                                       ~~~~~~
|    Q    Q   Q  Q       Q    Q    +E   E +Q
|-------------------|--------------------------|
|-^--5----6--^5--6--|-^--5----6----(6)---------|
|-^--7-------^7-----|-^--7---------------------|
|-------------------|--------------------------|
|-------------------|-------------------5-(5)--|
|-------------------|--------------------------|


    D5
     PM--------------|
     S S S S S S S S  E E Q
||---------------------------|
||o--------------------------|
||---------------------------|
||---------------------------|
||o--0-0-0-0-0-0-0-0--0------|
||---0-0-0-0-0-0-0-0--0------|
|
|    Q       Q        Q   Q
||---------------------------|
||o-^5-------6-------^5---6--|
||--^7---------------^7------|
||---------------------------|
||o--------------------------|
||---------------------------|


   PM--|   PM--------|         PM--------------|
   S S E E S S  S  S E  Q      S S S S S S S S  E E Q
|---------------------------|---------------------------|
|---------------------------|---------------------------|
|---------------------------|---------------------------|
|---------------------------|---------------------------|
|--0-0-0---0-0--0--0-0------|--0-0-0-0-0-0-0-0--0-------|
|--0-0-0---0-0--0--0-0------|--0-0-0-0-0-0-0-0--0-------|
|
|  Q     E E   +E    E +Q      Q       Q        Q   Q
|----------5---(5)---5-(5)--|---------------------------|
|-^5-----6-6---(6)---6-(6)--|-^5-------6-------^5---6---|
|-^7------------------------|-^7---------------^7-------|
|---------------------------|---------------------------|
|---------------------------|---------------------------|
|---------------------------|---------------------------|


  1.                             2.
  D5
   PM--|   PM--------|             PM--|   PM--------|
   S S E E S S  S  S E  Q          S S E E S S  S  S E  Q
|----------------------------||-|---------------------------||
|---------------------------o||-|---------------------------||
|----------------------------||-|---------------------------||
|----------------------------||-|---------------------------||
|--0-0-0---0-0--0--0-0------o||-|--0-0-0---0-0--0--0-0------||
|--0-0-0---0-0--0--0-0-------||-|--0-0-0---0-0--0--0-0------||
|
|  Q     Q     +E    E +Q          Q     Q     +E    E +Q
|--------------------5-(5)---||-|--------------------5-(5)--||
|-^5-----6-----(6)---6-(6)--o||-|-^5-----6-----(6)---6-(6)--||
|-^7-------------------------||-|-^7-----------------7-(7)--||
|----------------------------||-|---------------------------||
|---------------------------o||-|---------------------------||
|----------------------------||-|---------------------------||


 Verse
  Q=104
  N.C.
                          <     <         <     <       >
  PM---------|
  W          +W           Q..   S  H      Q..   S +Q   +Q
|----------|------------|---------------|-------------------|
|----------|------------|---------------|-------------------|
|----------|------------|-7-----7s10----|-------------------|
|----------|------------|---------------|-8-----7-(7)--(7)--|
|----------|------------|-5-----5s=8----|-------------------|
|-0--------|-(0)--------|---------------|-8-----7-(7)--(7)--|


  N.C.
  <     <          <      <     >
  Q..   S  H       Q..    S Q  +Q
|---------------|-------------------|
|---------------|-------------------|
|-7-----7s10----|-10-----10s6--(6)--|
|---------------|-------------------|
|-5-----5s=8----|--8------8s4--(4)--|
|---------------|-------------------|
|
| Gtr V
| W                W
|---------------|-------------------|
|---------------|-------------------|
|---------------|-------------------|
|---------------|-------------------|
|---------------|-------------------|
|---------------|-------------------|


     <      <            <      <        >
     Q..    S   H        Q..    S  +Q   +Q
||--------------------|----------------------|
||o-------------------|----------------------|
||---7------7s=10-----|----------------------|
||--------------------|--8------7--(7)--(7)--|
||o--5------5s==8-----|----------------------|
||--------------------|--8------7--(7)--(7)--|
|
|    Q..    S  +H        Q..    S  +H
||--17----------------|----------------------|
||o--------18-(18)----|-18-----17-(17)-------|
||--14----------------|----------------------|
||---------15-(15)----|-15-----14-(14)-------|
||o-------------------|----------------------|
||--------------------|----------------------|


                                                 Drum Fill
                                                  Q=160
  N.C.
                                                               5/4
   <      <            <      <        >
   Q..    S   H        Q..    S   Q   +Q            W           W
|-------------------|-----------------------||-||-------------|------||
|-------------------|----------------------o||-||-------------|------||
|--7------7s=10-----|-10-----10s==6---(6)---||-||-------------|------||
|-------------------|-----------------------||-||-------------|------||
|--5------5s==8-----|--8------8s==4---(4)--o||-||-------------|------||
|-------------------|-----------------------||-||-------------|------||
|
|  Q..    S  +H        Q..    S  +H                +W           W
|-17----------------|-----------------------||-||-------------|------||
|--------18-(18)----|-18-----17-(17)-------o||-||-(17)--------|------||
|-14----------------|-----------------------||-||-------------|------||
|--------15-(15)----|-15-----14-(14)--------||-||-(14)--------|------||
|-------------------|----------------------o||-||-------------|------||
|-------------------|-----------------------||-||-------------|------||


 Heavy Breakdown
  Q=236
  N.C.                        D5
 4/4
  PM--------------------------------------------------|
  S S E S S E S S E S S E     S S E  S S E S S E  S S E  4x
|-------------------------||-----------------------------||
|-------------------------||o---------------------------o||
|-------------------------||-----------------------------||
|-------------------------||-----------------------------||
|-------------------------||o-0-0-0--0-0-0-0-0-0--0-0-0-o||
|-0-0-0-0-0-0-0-0-0-0-0-0-||--0-0-0--0-0-0-0-0-0--0-0-0--||
|
| Gtr IV
| W                           Q      Q     Q      Q      4x
|-------------------------||-----------------------------||
|-------------------------||o---------------------------o||
|-------------------------||--7-----10-----9-----10------||
|-------------------------||-----------------------------||
|-------------------------||o-5------8-----7------8-----o||
|-------------------------||-----------------------------||


                      Outro
       H.=H            Q=152
  D5
             2/4      4/4
                        PM       PM--|
  h    h      h         E  Q     S S  E  E  Q
|-----------|------||----------------------------|
|-----------|------||o---------------------------|
|-----------|------||----------------------------|
|-0----0----|-0----||----------------------------|
|-0----0----|-0----||o--0--------0-0--0----------|
|-0----0----|-0----||---0--------0-0--0----------|
|
| Gtr II
| W           W         E  E  E  E    E  E  E  E
|-----------|------||--------12---------------12-|
|-----------|------||o----10-10------------10-10-|
|-----------|------||--11-11------------11-11----|
|-----------|------||--12---------------12-------|
|-----------|------||o---------------------------|
|-----------|------||--12-12-12-12---12-12-12-12-|
                        e  e  e  e    e  e  e  e


   PM--|      PM--|      PM-----|
   S S  E  E  S S  E  E  S S  S S
|---------------------------------|
|---------------------------------|
|---------------------------------|
|---------------------------------|
|--0-0--0-----0-0--0-----0-0--0-0-|
|--0-0--0-----0-0--0-----0-0--0-0-|
|
|  E    E  E  E    E  E  E    E
|------12-------------------------|
|------10-10------10--------------|
|---------11------11----11--------|
|-----------------------12--------|
|---------------------------------|
|-12---12-12-12---12-12-12---12---|
   e    e  e  e    e  e  e    e


  D5                                                  (Dadd9)
  PM    PM--|         PM--|   PM----------------------|
  E Q   S S E E Q     S S E E S S E S S S S S S  4x    E  E  H.
|-------------------|----------------------------||-|--------------------------|
|-------------------|---------------------------o||-|--------------------------|
|-------------------|----------------------------||-|--------------------------|
|-------------------|----------------------------||-|--------------------------|
|-0-----0-0-0-------|-0-0-0---0-0-0-0-0-0-0-0-0-o||-|--0-----------------------|
|-0-----0-0-0-------|-0-0-0---0-0-0-0-0-0-0-0-0--||-|--0-----------------------|
|
| E E E E   E E E E   W                          4x    E  E  E   E  E  E  E  E
|-----8-----------8-|----------------------------||-|-------12--------------12-|
|---6-6---------6-6-|---------------------------o||-|----10-10-----------10-10-|
|-7-7---------7-7---|----------------------------||-|-11-11-----------11-11----|
|-8-----------8-----|----------------------------||-|-12--------------12-------|
|-------------------|---------------------------o||-|--------------------------|
|-8-8-8-8---8-8-8-8-|-8---8-8-8---8-8---8---8----||-|-12-12-12--12-12-12-12-12-|
  e e e e   e e e e   e   e e e   e e   e   e          e  e  e   e  e  e  e  e


  (Dadd9)                   (Bbadd9)
  Gtr II
   E  E  E  E  E  E  E  E   E E E E E E E E
|----12-------------------|-----8---------8-|
|----10-10----10----------|---6-6-------6-6-|
|-------11----11----11----|-7-7-------7-7---|
|-------------------12----|-8---------8-----|
|-------------------------|-----------------|
|-12-12-12-12-12-12-12-12-|-8-8-8-8-8-8-8-8-|
   e  e  e  e  e  e  e  e   e e e e e e e e


                    (Dadd9)
  W                  E  E  E  E  E  E  E  E
|-----------------|-------12-------------12-|
|-----------------|----10-10----------10-10-|
|-----------------|-11-11----------11-11----|
|-----------------|-12-------------12-------|
|-----------------|-------------------------|
|-8-8-8-8-8-8-8-8-|-12-12-12-12-12-12-12-12-|
  e e e e e e e e    e  e  e  e  e  e  e  e


                                                                Clip From "The Wizard"
  (Dadd9)                   (Bbadd9)
   E  E  E  E  E  E  E  E   E E E E E E E E   W                  Wx4
|----12-------------------|-----8---------8-|-----------------||--------*|
|----10-10----10----------|---6-6-------6-6-|-----------------||--------*|
|-------11----11----11----|-7-7-------7-7---|-----------------||--------*|
|-------------------12----|-8---------8-----|-----------------||--------*|
|-------------------------|-----------------|-----------------||--------*|
|-12-12-12-12-12-12-12-12-|-8-8-8-8-8-8-8-8-|-8-8-8-8-8-8-8-8-||--------*|
   e  e  e  e  e  e  e  e   e e e e e e e e   e e e e e e e e



Duration Legend
---------------
W - whole; H - half; Q - quarter; E - 8th; S - 16th; T - 32nd; X - 64th; a - acciaccatura
+ - note tied to previous; . - note dotted; .. - note double dotted
Uncapitalized letters represent notes that are staccato (1/2 duration)
Irregular groupings are notated above the duration line
Duration letters will always appear directly above the note/fret number it represents the
duration for.  Duration letters with no fret number below them represent rests.  Multi-
bar rests are notated in the form Wxn, where n is the number of bars to rest for.  Low
melody durations appear below the staff

Tablature Legend
----------------
 h   - hammer-on
 p   - pull-off
 b   - bend
 pb  - pre-bend
 r   - bend release (if no number after the r, then release immediately)
 /\  - slide into or out of (from/to "nowhere")
 s   - legato slide
 S   - shift slide
 - natural harmonic
[n]  - artificial harmonic
n(n) - tapped harmonic
 ~   - vibrato
 tr  - trill
 T   - tap
 TP  - trem. picking
 PM  - palm muting
\n/  - tremolo bar dip; n = amount to dip
 \n  - tremolo bar down
 n/  - tremolo bar up
/n\  - tremolo bar inverted dip
 =   - hold bend; also acts as connecting device for hammers/pulls
 <> - volume swell (louder/softer)
 x   - on rhythm slash represents muted slash
 o   - on rhythm slash represents single note slash

Misc Legend
-----------
 |  - bar
||  - double bar
||o - repeat start
o|| - repeat end
*|  - double bar (ending)
 :  - bar (freetime)
 $  - Segno
 &  - Coda
Tempo markers -  = BPM(8/16=s8/s16), where s8 = swing 8ths, s16 = swing 16ths

Добавлено: 27.07.2012
Другие материалы по этой песне:

Страница создана 22.02.2012
http://primanota.ru/horse-the-band/cutsman-chords.htm
Привет, Гость.
Предлагаем пройти революционный курс по гитаре.
Подарок от PrimaNota.Ru, забирай!