PrimaNota.ru - самый крупный в мире бесплатный архив песенных текстов, аккордов, табулатур и нот


Horse The Band - Birdo - текст песни, таба, видео

Регистрация Запомнить меня
Войти через:  Facebook Google Twitter Vk Yandex Mail.ru

Horse The Band - Birdo - текст песни, таба, видео

Печатать
Просмотров: 172
Уроки эстрадного вокала в Санкт-Петербурге
----------------------------------------------------------------------------
                             Birdo - HORSE the band
----------------------------------------------------------------------------
Tabbed by: El Phezo, Matt Carter
Email:PnkRckIsYourFrnd@AIM.com

Tuning: Drop D (ebgdaD)

A little sketchy but here it is:

|--------------------------------------------------------------------------|
|--------------------------------------------------------------------------|
|--------------------------------------------------------------------------|
|-------3--3--------3--5--------3-0--------3--0--------3--3--------3--5----|
|-3h4h5----3--3h4h5----5--3h4h5---0--3h4h5----0--3h4h5----3--3h4h5----5----|
|----------3-----------5----------0-----------0-----------3-----------5----|

|-------------------------------------------|---not sure about this part---|
|--------------------------------------------------------------------------|
|---------------------------------------------------5---------------5------|
|-------3------------------------3--------3--5h6h7---5h6h7---5h6h7--5h6h7-5|
|-3h4h5---3h4h5------------3h4h5---3h4h5--3-----------------5--------------|
|----------------3vibrato-----------------3--------------------------------|

|---------------------------------------------------|
|---------------------------------------------------|
|---------------------------------------------------|
|-0-0-0----0-0-0----3-3-3----3-3-3------------------|
|-0-0-0----0-0-0----3-3-3----3-3-3------------------|
|-0-0-0----0-0-0----3-3-3----3-3-3------------------|

|--------------------------------------------------------------------------|
|--------------------------------------------------------------------------|
|----------10-----------10--9-----------5-----------5--5-5-5~--------------|
|-0-0-0-0---x--0-0-0-0---x--x--3-3-3-3--x--3-3-3-3--x--x-x-x-hold----------|
|-0-0-0-0---8--0-0-0-0---8--7--3-3-3-3--3--3-3-3-3--3--3-3-3~--------------|
|-0-0-0-0------0-0-0-0---------3-3-3-3-----3-3-3-3-------------------------|

|--------------------------------------------------------------------------|
|--------------------------------------------------------------------------|
|--------------------------------------------------------------------------|
|-0--0--0--0-0----0--0--0--0-0----3--3--3--3-3----3--3--3--3-3---twice-----|
|-0--0--0--0-0----0--0--0--0-0----3--3--3--3-3----3--3--3--3-3-------------|
|-0--0--0--0-0----0--0--0--0-0----3--3--3--3-3----3--3--3--3-3-------------|
PM____________________________________________________________

|-------------------------------------------|
|----------play all 16 times fast-----------|
|-------------------------------------------|
|-------------------------------------------|
|-0--2--3--5--8--10-------------------------|
|-0--2--3--5--8--10-------------------------|

                                                                  
|--------------------------------------------------------------------------|
|--------------------------------------------------------------------------|
|--------------------------------------------------------------------------|
|-------3--------0--------3--------0--------3--------3--------3--------5-5-|
|-3h4h5---3h4h5--0--3h4h5---3h4h5--0--3h4h5---3h4h5--3--3h4h5---3h4h5--5---|
|----------------0-----------------0-----------------3-----------------5---|
The Last 5 is a Pinch Harmonic Vibrato

|------------------------------------------------|
|------------------------------------------------|
|------------------------------------------------|
|-3-3-3-3-3-3-3-3-3-3-3-3-0~---------------------|
|-3-3-3-3-3-3-3-3-3-3-3-3-0~-hold out------------|
|-3-3-3-3-3-3-3-3-3-3-3-3-0~---------------------|

Wait for keyboard to be done

|------------------------------------------|
|------------------------------------------|
|------------------------------------------|
|-0-0--0--0-0-0-0-0------------------------|
|-0-0--0--0-0-0-0-0------------------------|
|-0-0--0--0-0-0-0-0------------------------|
PM_________________

|---------------------------------24/0------------|
|------------------------------24-----------------|
|-------------------------------------------------|
|-0-0------0-0--0--0-0-0-0-0----------------------|
|-0-0------0-0--0--0-0-0-0-0----------------------|
|-0-0------0-0--0--0-0-0-0-0----------------------|
PM__________________________

|------------------------------24-24/0------------|
|-------------------------------------------------|
|-------------------------------------------------|
|-0-0------0-0--0--0-0-0-0-0----------------------|
|-0-0------0-0--0--0-0-0-0-0----------------------|
|-0-0------0-0--0--0-0-0-0-0----------------------|
PM__________________________

|-----------------------------------------------------|
|--15----15----15----15----15----15----15-------------|
|-----17----17----17----17----17----17----17----------|
|-----------------------------------------------------|
|-----------------------------------------------------|
|-----------------------------------------------------|

|------------------------------------|
|------------------------------------|
|------------------------------------|
|-0-0------0-0--0--0-0-0-0-0---------|
|-0-0------0-0--0--0-0-0-0-0---------|
|-0-0------0-0--0--0-0-0-0-0---------|
PM__________________________

|----------------------------------------------------------|
|-------15----15----15----15----15----15----15-------------|
|----------17----17----17----17----17----17----17----------|
|-0-0------------------------------------------------------|
|-0-0------------------------------------------------------|
|-0-0------------------------------------------------------|
PM___


|------------------------------------|
|------------------------------------|
|------------------------------------|
|-0-0------0-0--0--0-0-0-0-0---------|
|-0-0------0-0--0--0-0-0-0-0---------|
|-0-0------0-0--0--0-0-0-0-0---------|
PM__________________________

|-----------------------------------------------------------|
|-----------------------------------------------------------|
|-----------------------------------------------------------|
|-5--7--8----2--3--0----5--7--8----2--3--0------------------|
|-5--7--8----2--3--0----5--7--8----2--3--0------------------|
|-5--7--8----2--3--0----5--7--8----2--3--0------------------|

|------------------------------------------------------------|
|--------------------times two-------------------------------|
|------------------------------------------------------------|
|-5--5--5--5-5-5----8--8--8--8-8-8----0--0--0--0-0-0---------|
|-5--5--5--5-5-5----8--8--8--8-8-8----0--0--0--0-0-0---------|
|-5--5--5--5-5-5----8--8--8--8-8-8----0--0--0--0-0-0---------|


|--------------------------------------------------------------------------|
|-3-3----------------------------------------------------------------------|
|-----2--2-2-2--3-3------0-0-----------------------------------------------|
|--------------------3-3-------0-0--3--3-3-3--5-5--2--2-2-2----------------|
|--------------------------------------------------------------------------|
|--------------------------------------------------------------------------|


|--------------------------------------------------------------------------|
|-3-3----------------------------------------------------------------------|
|-----2--2-2-2--3-3------0-0-----------------------------------------------|
|--------------------3-3-------0-0--3--3-3-3--5-5--2~ hold-----------------|
|--------------------------------------------------------------------------|
|--------------------------------------------------------------------------|

|------------------------------------------------------|
|------------------------------------------------------|
|-----------------------------7---5--------------------|
|-0-0-0-0-0-----------------0---0---0------------------|
|-0-0-0-0-0---Four Times-------------------------------|
|-0-0-0-0-0--------------------------------------------|
PM_________

|------------------------------------------------------|
|------------------------------------------------------|
|-----------------------------7---5---7----------------|
|-0-0-0-0-0-----------------0---0---0------------------|
|-0-0-0-0-0---Two Times--------------------------------|
|-0-0-0-0-0--------------------------------------------|
PM_________

|---------------------------------------|
|---------------------------------------|
|---------------------------------------|
|-0-0-0-0-0-----------------------------|
|-0-0-0-0-0---Three More Times----------|
|-0-0-0-0-0-----------------------------|
PM_________

The End
Добавлено: 08.06.2012
Другие материалы по этой песне:
  • Аккорды и текст

Страница создана 15.04.2012
http://primanota.ru/horse-the-band/birdo-chords.htm
Привет, Гость.
Предлагаем пройти революционный курс по гитаре.
Подарок от PrimaNota.Ru, забирай!