PrimaNota.ru - самый крупный в мире бесплатный архив песенных текстов, аккордов, табулатур и нот


Horse The Band - A Rusty Glove - текст песни, таба, видео

Регистрация Запомнить меня
Войти через:  Facebook Google Twitter Vk Yandex Mail.ru

Horse The Band - A Rusty Glove - текст песни, таба, видео

Печатать
Просмотров: 115
So I really want to learn this song but honestly I'm not skilled enough to figure out 
David Isen's complicated bits so I can get you 30 seconds in the song. Hope this inspires 
someone to tab out the rest because this song has a badass guitar part!!

HORSE THE BAND
A RUSTY GLOVE

Drop D Tuning

yeah

Intro

E|-----------------|
B|-----------------|
G|-----------------|
D|--7--3--5--2--7--|
A|--7--3--5--2--7--|
D|--7--3--5--2--7--|


E|----------------------------------------------------------|
B|----------------------------------------------------------|
G|----------------------------------------------------------|
D|--3p0--3p0--3p0----3p0--3p0----2p0--2p0--2p0----2p0--2p0--|
A|----------------------------------------------------------|
D|----------------------------------------------------------|


Verse.


E|----------------------------------------------------------|
B|----------------------------------------------------------|
G|----------------------------------------------------------|
D|--3p0--3p0--3p0----3p0--3p0----2p0--2p0--2p0----2p0--2p0--|
A|----------------------------------------------------------|
D|----------------------------------------------------------| x2



E|-------------------------------------------------------------|
B|-------------------------------------------------------------|
G|-------------------------------------------------------------|
D|--8p0--8p0--8p0----8p0--8p0----7p0--7p0--7p0----7p0--7p0-----|
A|-------------------------------------------------------------|
D|-------------------------------------------------------------| x2

Then do the verse again



And that's all I have. It sounds right to me, This is my first attempt at figuring 
anything out by ear and my first tab so please don't be too brutal if anything's wrong
Добавлено: 28.03.2012
Другие материалы по этой песне:
  • Аккорды и текст

Страница создана 28.03.2012
http://primanota.ru/horse-the-band/a-rusty-glove-chords.htm
Привет, Гость.
Предлагаем пройти революционный курс по гитаре.
Подарок от PrimaNota.Ru, забирай!