PrimaNota.ru - самый крупный в мире бесплатный архив песенных текстов, аккордов, табулатур и нот


Horse Feathers - Heathens Kiss - таба, видео

Регистрация Запомнить меня
Войти через:  Facebook Google Twitter Vk Yandex Mail.ru

Horse Feathers - Heathens Kiss - таба, видео

Печатать
Просмотров: 101
Heathen's Kiss by Horse Feathers
lexysheffield@gmail.com

This isn't 100% correct, but this is how I like to play it. It is basically just playing 
around with the Am chord.

Capo 1

                       V   V   V
E|-------------------------------|-----------------------------|
G|-----1-------1-----1-1-1-1-1-1-|-----1-------1---1-1---------|
B|-----0h2-----0-----0-0-2-2-2-2-|-----0h2-----0---0-0---------|
D|---2-2-----2-2---2-2-2-2-2-0-0-|---2-2-----2-2---2-2-0-0-----|
A|-0-------0-----0---------------|-0-------0-----0---------3p0-|
E|-------------------------------|-----------------------------|
                       V   V   V                     V     V   V
E|-------------------------------|-------------------------------|
G|-----1-------1-----1-1-1-1-1-1-|-----1-------1---1-1-1/3-3-1-0-|
B|-----0h2-----0-----0-0-2-2-2-2-|-----0h2-----0---0-0-2/4-4-2-0-|
D|---2-2-----2-2---2-2-2-2-2-0-0-|---2-2-----2-2---2-2-----------|
A|-0-------0-----0---------------|-0-------0-----0---------------|
E|-------------------------------|-------------------------------|

I'm sure the timing on this is horribly off, but this is just that violin part between 
verses, if you're playing with two on guitar.

E|-------------------------------|-----------------------------|
G|-0s5-----------3---------------|-0--1--0---------------------|
B|-0s5-----------4---------------|-0--2--0--2--0--0h2----------|
D|-------------------------------|----------2--0--0h2----------|
A|-------------------------------|-----------------------------|
E|-------------------------------|-----------------------------|
Добавлено: 28.07.2015
Другие материалы по этой песне:
  • Аккорды и текст

Страница создана 28.07.2015
http://primanota.ru/horse-feathers/heathens-kiss-chords.htm
Привет, Гость.
Предлагаем пройти революционный курс по гитаре.
Подарок от PrimaNota.Ru, забирай!